Song name
# A B C D E F G H I J K L M N O P Q R S T U V W X Y Z

Misc Unsigned Bands - Autoplay Conspiracy - Heres To The Future tab

Autoplay Conspiracy

1st guitar - Lead
2nd guitar - rythm

Intro
Riff 1:
1st guitar
e|--------------------|
B|-------5h6p5--------|
G|-----7-------7-5-7--| 3x's
D|---7----------------| 
A|-5------------------|
D|--------------------|

e|--------------------|
B|-------5h6p5-6-8-6--|
G|-----7--------------| 
D|---7----------------| 
A|-5------------------|
D|--------------------|

repeat riff 1 6x's

2nd guitar
e|-------------------|
B|-------------------|
G|-------------------| 
D|-0~----8~----5~----|
A|-0~----8~----5~----|
D|-0~----8~----5~----|

e|-------------------|
B|-------------------|
G|-------------------| 
D|-0~----8~----7~----|
A|-0~----8~----7~----|
D|-0~----8~----7~----|

e|--------------------|
B|--------------------|
G|--------------------| 
D|-0~----8~----10~----|
A|-0~----8~----10~----|
D|-0~----8~----10~----|

repeat 2x's


After that 2nd guitar pics slides and leads into breakdown 1
2nd guitar
e|---------------------------------------------------|
B|---------------------------------------------------|
G|---------------------------------------------------|
D|--////////////////////////////////////////////////-|
A|-/////////////////////////////////////////////////-|
D|-/////////////////////////////////////////////////-|

Breakdown 1:
1st guitar
e|-------------------------------|
B|-------------------------------|
G|-5-5-5--5-5-5--555555--5-5-5---| 3x's
D|-4-4-4--4-4-4--444444--4-4-4---|
A|-3-3-3--3-3-3--333333--3-3-3---|
D|-------------------------------|

2nd guitar
e|-------------------------------|
B|-------------------------------|
G|-------------------------------| 3x's
D|-------------------------------|
A|-1-1-1--1-1-1--111111--1-1-1---|
D|-2-2-2--2-2-2--222222--2-2-2---|
   . . .  . . .  ......  . . .

Both guitars
e|-------------------------------|
B|-------------------------------|
G|-------------------------------|
D|-0-0-0--0-0-0--000000--0-0-0~--|
A|-0-0-0--0-0-0--000000--0-0-0~--|
D|-0-0-0--0-0-0--000000--0-0-0~--|
   . . .  . . .  ......  . .  

Riff 2:
1st guitar
e|--------------------|
B|-------5h6p5--------|
G|-----7-------7-5-7--| 3x's
D|---7----------------| 
A|-5------------------|
D|--------------------|

e|--------------------|
B|-------5h6p5-6-8-6--|
G|-----7--------------| 
D|---7----------------| 
A|-5------------------|
D|--------------------|

repeat riff 2 6x's

2nd guitar
e|----------------------------------------------|
B|----------------------------------------------|
G|----------------------------------------------| 6x's
D|-0-000-000000-000-0-3-3-3333-33-7-7-7777-7-7~-|
A|-0-000-000000-000-0-3-3-3333-33-7-7-7777-7-7~-|
D|-0-000-000000-000-0-3-3-3333-33-7-7-7777-7-7~-|
   . ... ...... ... . . . .... .. . . .... . 

Riff 3:
1st guitar
e|------------------------------|
B|-------------5h6-8p5----------|
G|---------5h7---------7-5------| 
D|-----5h7----------------------|
A|-8-7---------------------3~---|
D|------------------------------|

e|-----------------------------------|
B|--------------8-6-5h6p5h6p5h6p5h6--|
G|---------7h10----------------------| 
D|-----5h7---------------------------|
A|-8-7-------------------------------|
D|-----------------------------------|

e|-------------------------|
B|-------------------------|
G|--------------10--12-----| 
D|-----3h5------x---x------|
A|-8-7-----6p5--8---10-----|
D|-------------------------|

2nd guitar
e|-------------------------------|
B|-------------------------------|
G|-------------------------------| 3x's
D|-8--7--000-000-00-3-5-3-2-3-5--|
A|-8--7--000-000-00-3-5-3-2-3-5--|
D|-8--7--000-000-00-3-5-3-2-3-5--|
         ... ... .. . . . . . .

2nd guitar 
e|-----|
B|-----|
G|-----|
D|-0~--|
A|-0~--|
D|-0~--|

ends on this and piano comes in with some melody

Breakdown 2:
1st guitar
e|-------------------------------|
B|-------------------------------|
G|-------------------------------| 6x's
D|-8--7--000-000-00-3-5-3-2-3-5--|
A|-8--7--000-000-00-3-5-3-2-3-5--|
D|-8--7--000-000-00-3-5-3-2-3-5--|
         ... ... .. . . . . . .

2nd guitar
e|-------------|
B|-------------|
G|-------------| 6x's
D|-0-0-0-0-0-0-|
A|-0-0-0-0-0-0-|
D|-0-0-0-0-0-0-|
   . . . . . .

Both guitars
e|-----|
B|-----|
G|-----|
D|-0~--|
A|-0~--|
D|-0~--|
Tap to rate this tab
# A B C D E F G H I J K L M N O P Q R S T U V W X Y Z