Guitaretab - guitar tabs
Song name
# A B C D E F G H I J K L M N O P Q R S T U V W X Y Z

Misc Unsigned Bands - Lost Acre - Caroline tab

-------------------------------------------------------------------------------
			     CAROLINE - Lost Acre
-------------------------------------------------------------------------------
Tabbed by: Siv
Email: lostacremusic@gmail.com

Tuning:

e|------------------------------|
B|--8-----5----12-----7---------|
G|--x-----x----x------x---------|  x2
D|--x-----x----x------x---------|
A|--7-----3----10-----5---------|
E|------------------------------|


GUITAR SOLO THING
e|------------------------------------------------------------|
B|--8-8-8-7----5-5-5-5-3----12-12-12-12-10----7-7-7-7-7-------|
G|--x-x-x-x----x-x-x-x-x----x--x--x--x--x-----x-x-x-x-x-------|
D|--x-x-x-x----x-x-x-x-x----x--x--x--x--x-----x-x-x-x-x-------|1 time alone
A|--7-7-7-7----3-3-3-3-3----10-10-10-10-10----5-5-5-5-5-------|and 4 together
E|------------------------------------------------------------|


1st part of the verse
e|--------|
B|--------|
G|--8-----|
D|--x-----| let it ring
A|--x-----|
E|--7-----|

[ Tab from: http://www.guitaretab.com/m/misc-unsigned-bands/111766.html ]
2nd part of Verse
e|-------------7---------------------10-----------------|
B|-------8h10-----8----8-------8-----------8------8-----|
G|--9-9--------------9----9-9-----9------------9--------|  x4
D|------------------------------------------------------|
A|------------------------------------------------------|
E|------------------------------------------------------|


Chorus
e|-------------------------------------------------------------|
B|--8-----------5---------------------12-----------7-----------|
G|--x-----------x---------------------x------------x-----------|
D|--x-(x16)-----x-(x16)----(PAUSE)----x--(x16)-----x-(x16)-----|
A|--7-----------3---------------------10-----------5-----------|
E|-------------------------------------------------------------|


PLAY GUITAR SOLO THING ONCE ALONE

THEN 4 TIMES TOGETHER

*Repeat Verse

*Repeat Chorus


Bridge (after bass solo)

e|--7----7----7----7----------|
B|----8----8----8-----8-------|
G|----------------------------|
D|----------------------------|  keep playing till the songs ends
A|----------------------------|
E|----------------------------|
Related for Lost Acre - Caroline tab
Advertisement will be closed in 10 seconds