Song name
# A B C D E F G H I J K L M N O P Q R S T U V W X Y Z

Misc Unsigned Bands - Ben Shotts - Wanderer tab

-------------------------------------------------------------------------------
			     Wanderer - Ben Shotts
-------------------------------------------------------------------------------
Tabbed by:Ben Shotts
Email:ben_shotts@yahoo.com

Tuning:EADGBE

im just going to show u the chord order thats all.

e|-----------------------------------------------------------------------------------|
B|-----------------------------------------------------------------------------------|
G|-----8--------------------6------------8------------6------------13----------------|
D|------9---------------------7-----------9--------------7------------14-------------|
A|------9--------------------7------------9------------7------------14---------------|
E|---7--------------------5------------7------------5------------12------------------|

e|-----------------------------------------------------------------------------------|
B|-----------------------------------------------------------------------------------|
G|----11----------------13-------------11--------------------------------------------|
D|------12----------------14---------------12----------------------------------------|
A|-----12----------------14------------------12--------------------------------------|
E|-10----------------12------------------10------------------------------------------|

after that i go into this

e|----------------------------------------------------------------------------------|
B|--------------------------------------------------------------1-------------------|
G|-------8-------------6---------4-----------------1--------------------------------|
D|--------9-------------7----------5----------------2-------------2-----------------|
A|--------9-------------7----------5----------------2---------------3---------------|
E|-----7-------------5-----------3--------------------------------------------------|

e|---------------------------3---------2-----------------3--------2------------------|
B|------------1--------------------------3---------------------------3---------------|
G|---1----------------------------------2--------------------------2-----------------|
D|----2-------2---------------------------------2-----------------------------2------|
A|----2---------3----------3--------------------2--------3--------------------2------|
E|------------------------2-----------------------------2----------------------------|

e|------3--------2------------3------2---------------------------------------------|
B|-----------------3-------------------3-------------------------------------------|
G|---------------2-------------------2---------------------------------------------|
D|---------------------------------------------------2-----------------------------|
A|----2---------------------2------------------------2-----------------------------|
E|------3---------------------3----------------------------------------------------|

then tapping madness that i wont go into great detail about but tell the progression
everything is hammered onto here.
You can do this progression until your hearts content.
e|--------------------------------------------------------------------------------|
B|--------------------------------------------------------------------------------|
G|------------------------------2-------------------------------------------------|
D|-----2---------------2--------2-------------------------------------------------|
A|-----2----------2----2----------------------------------------------------------|
E|----------------2---------------------------------------------------------------|

then hammering on and pulling of with my left hand i consitently do this.

e|------------------------------------------------------------------------------|
B|---2--------------------------------------------------------------------------|
G|---2--------------------------------------------------------------------------|
D|------------------------------------------------------------------------------|
A|------------------------------------------------------------------------------|
E|------------------------------------------------------------------------------|

while im doing the above with my right hand i do this. this all hammer on but
the last in the progression is pull off.

e|----------------------------------------------------------------------------------|
B|----------------------------------------------------------------------------------|
G|----------------------------------------------------------------------------------|
D|---7--------5------3-----2-------0------------------------------------------------|
A|---7--------5------3-----2-------0------------------------------------------------|
E|---7--------5------3-----2-------0------------------------------------------------|

Thats it!!!
This is my first tab and i really didn't feel like doing great detail but enjoy.

To Listen to this song go to myspace.com/aheavenlyshore

===============================================================================
Tap to rate this tab
# A B C D E F G H I J K L M N O P Q R S T U V W X Y Z