Song name
# A B C D E F G H I J K L M N O P Q R S T U V W X Y Z

Misc Unsigned Bands - The Sacred Knights - Damn Right You Are tab

Guitar 1: Distortion
Guitar 2: Distortion

Intro 1 (Guitar 1):
e---------------------------------------------|
B---------------------------------------------|
G---------------------------------------------|
D--9-9-9---11-11-11----13--13--13---11-11-11--|2x 
A-7-7-7-9-9--9--9--9-11--11--11--9-9--9--9--9-|
E---------------------------------------------|

Intro 2 (Guitar 2 but Guitar 1 will keep doing Intro 1 until the verse):
E-F#m-G#m-F#m (2x)

Verse 1 (Guitar 1) (You are the very best... upto Give me your precious smiles): 
e------------------------------------------------------------------|
B------------------------------------------------------------------|
G-9-xx-9-xx-9-x-11-xx-11-xx-11-x-13-xx-13-xx-13-x-11-xx-11-xx-11-x-|
D------------------------------------------------------------------|  3x
A-7-xx-7-xx-7-x-9--xx-9--xx-9--x-11-xx-11-xx-11-x-9--xx-9--xx-9--x-|
E------------------------------------------------------------------|

e--------------------------------------------------------------------|
B--------------------------------------------------------------------|
G-9-xx-9-xx-9-x-11-xx-11-xx-11-x-13-xx-13-xx-13-x-11-xx-11-xx-11-x-9-|
D--------------------------------------------------------------------|
A-7-xx-7-xx-7-x-9--xx-9--xx-9--x-11-xx-11-xx-11-x-9--xx-9--xx-9--x-7-|
E--------------------------------------------------------------------|

Guitar 2 (palm mute):
E-F#m-G#m (4x)

Refrain:
                 Pick slide
I've told you so many times

Chorus 1 (Guitar 2) (Damn right you are up to I should've never ever let her):
B5-Bmaj7 (modified)-E-B5-Bmaj7 (modified)-Emaj7 (modified)-E5
e-2222-2222-00000000-2222-2222-7777-7777-4444-2222-00000000-4444-2222-00000000-|
B-2222-2222-00000000-2222-2222-7777-7777-4444-2222-00000000-4444-2222-00000000-|
G-4444-3333-11111111-4444-3333-8888-9999-4444-3333-11111111-4444-3333-11111111-|
D-4444-4444-22222222-4444-4444-9999-9999-6666-4444-22222222-6666-4444-22222222-|
A-2222-2222-22222222-2222-2222-7777-7777-6666-4444-22222222-6666-4444-22222222-|
E-----------00000000-----------0000-0000-4444-2222-00000000-4444-2222-00000000-|

Chorus 1 (Damn Right You Are... the only one who came around) (Guitar 1):
e----------------------------------|
B-----5555444477775555444455557777-|
G-4444-----------------------------|
D----------------------------------| 2x
A----------------------------------|
E----------------------------------|

(C'mon scream aloud... i should've never ever let her)
e---------7777------------7777-----|
B-99997777----777799997777----7777-|
G----------------------------------|
D----------------------------------|
A----------------------------------|
E----------------------------------|

Intro 3 (Guitar 1):
e---------------------------------------------|
B---------------------------------------------|
G---------------------------------------------|
D--9-9-9---11-11-11----13--13--13---11-11-11--|2x 
A-7-7-7-9-9--9--9--9-11--11--11--9-9--9--9--9-|
E---------------------------------------------|


Verse 2:(Guitar 1) (You are the meanest one... upto Give me your precious smiles): 
e------------------------------------------------------------------|
B------------------------------------------------------------------|
G-9-xx-9-xx-9-x-11-xx-11-xx-11-x-13-xx-13-xx-13-x-11-xx-11-xx-11-x-|
D------------------------------------------------------------------|  3x
A-7-xx-7-xx-7-x-9--xx-9--xx-9--x-11-xx-11-xx-11-x-9--xx-9--xx-9--x-|
E------------------------------------------------------------------|

e--------------------------------------------------------------------|
B--------------------------------------------------------------------|
G-9-xx-9-xx-9-x-11-xx-11-xx-11-x-13-xx-13-xx-13-x-11-xx-11-xx-11-x-9-|
D--------------------------------------------------------------------|
A-7-xx-7-xx-7-x-9--xx-9--xx-9--x-11-xx-11-xx-11-x-9--xx-9--xx-9--x -7-|
E---------------------------------------------------------------------|

Guitar 2 (palm mute):
E-F#m-G#m (4x)

Refrain:
                            Pick slide
I've told you so many times

Chorus 2 (Damn Right You Are... the only one who came around) (Guitar 1):
e----------------------------------|
B-----5555444477775555444455557777-|
G-4444-----------------------------|
D----------------------------------| 2x
A----------------------------------|
E----------------------------------|

(C'mon scream aloud... i should've never ever hurt her)
e---------7777------------7777-----|
B-99997777----777799997777----7777-|
G----------------------------------|
D----------------------------------|
A----------------------------------|
E----------------------------------|

Bridge 1 (Guitar 1 & 2):
E-F#m-G#m-F#m (12x)

Bridge 2 (Guitar 1):
e---------------------------------|
B---------------------------------|
G-99-88-66-44-444-99-88-66-44-444-|
D---------------------------------|  2x
A-77-66-44-22-222-77-66-44-22-222-|
E---------------------------------|

Bridge 2 (Guitar 2):
E-F#m-G#m-F#m-E (2x)

Chorus 3 (Damn Right You Are... the only one who came around) (Guitar 1):
e----------------------------------|
B-----5555444477775555444455557777-|
G-4444-----------------------------|
D----------------------------------| 2x
A----------------------------------|
E----------------------------------|

(C'mon scream aloud... i should've never ever hurt her)
e---------7777------------7777-----|
B-99997777----777799997777----7777-|
G----------------------------------|
D----------------------------------|
A----------------------------------|
E----------------------------------|
(repeat chorus 3 one more time)

Outro (Guitar 1):
e---------------------------------|
B---------------------------------|
G-99-88-66-44-444-99-88-66-44-444-|
D---------------------------------|  2x
A-77-66-44-22-222-77-66-44-22-222-|
E---------------------------------|

Outro (Guitar 2):
E-F#m-G#m-F#m-E (2x)

Fade chord (Guitar 1 & 2): B
Tap to rate this tab
 
# A B C D E F G H I J K L M N O P Q R S T U V W X Y Z