Song name
# A B C D E F G H I J K L M N O P Q R S T U V W X Y Z

Misc Unsigned Bands - Warlocks - Surgery tab

hi its my first tab so please rate and comment if there's any problem.
I couldn't find any tab of surgery so I tried to do it myself :)


-------------------------------------------------------------------------------|
--intro------------------------------------------------------------------------|
------------5------------------------------------------------------------------|
--5---------5---x8----3-3-3-3-5-5-5-5------------------------------------------|
--5--x16----3---------3-3-3-3-5-5-5-5------------------------------------------|
--3---------3---------1-1-1-1-3-3-3-3------------------------------------------|


-------------------------------------------------------------------------------|
-------------------------------------------------------------------------------|
10/9-9-9-9-9-9-9-9-7-7-7-7-5-0-0-0-10/9-9-9-9-9-9-9-9-2-2-2-2-5-0-0-0----------|
-------------------------------------------------------------------------------|
-------------------------------------------------------------------------------|
-------------------------------------------------------------------------------|
Tap to rate this tab
# A B C D E F G H I J K L M N O P Q R S T U V W X Y Z