Song name
# A B C D E F G H I J K L M N O P Q R S T U V W X Y Z

Misc Unsigned Bands - Wake Up Call - Remember tab

----------------------------------------------------------------------------
		          Remember - Wake Up Call
----------------------------------------------------------------------------
Tabbed by: Jim Ficenec
Email: a7xbass512@yahoo.com

Tuning:Standard

Main Riff:
e|------------------------------------|
B|------------------------------------|
G|------------------------------------|
D|-5-5-555----------------------------|
A|-3-3-333-7-7-777-2-2-222-3-3-5-5----|
E|---------5-5-555-0-0-000-1-1-3-3----|

Verse:
e|----------------------------------|
B|----------------------------------|
G|----------------------------------|
D|-5-5-555--------------------------|
A|-3-3-333-7-7-7777-2-2-2222-2-222--|
E|---------5-5-5555-0-0-0000-0-000--|
pm . . ... . . .... . . .... . ...
e|------------------------------------|
B|------------------------------------|
G|------------------------------------|
D|-5-5-555----------------------------|
A|-3-3-333-7-7-7777-2-2-222-3-33-5-55-|
E|---------5-5-5555-0-0-000-1-11-3-33-|
pm . . ... . . .... . . ... . .. . ..

Chorus:
e|------------------------------------|
B|------------------------------------|
G|------------------------------------|
D|-5-5-555----------------------------|
A|-3-3-333-7-7-777-2-2-222-3-3-5-5----|
E|---------5-5-555-0-0-000-1-1-3-3----|

e|-----------------------------------|
B|-----------------------------------|
G|-----------------------------------|
D|-5-5-555---------------------------|
A|-3-3-333-7-7-777-2-2222222222-3-5--|
E|---------5-5-555-0-0000000000-1-3--|
pm                   ..........

e|------------------------------------|
B|------------------------------------|
G|------------------------------------|
D|-5-5-555----------------------------|
A|-3-3-333-7-7-777-2-2-222-3-3-5-5----|
E|---------5-5-555-0-0-000-1-1-3-3----|

e|-------------------------------------------------|
B|-------------------------------------------------|
G|-------------------------------------------------|
D|-5-5-555-----------------------------------------|
A|-3-3-333-7-7-777-2-2222222222222222222222222-3-5-|
E|---------5-5-555-0-0000000000000000000000000-1-3-|
pm                   ............   ..........

Solo:
e|-----------------------------------|
B|-----------------------------------|
G|-5-5-555---------------------------|
D|---------7-7-777-2-2-222-3-33-5-55-|
A|-----------------------------------|
E|-----------------------------------|

e|-----------------------------------|
B|-----------------------------------|
G|-5-5-555---------------------------|
D|---------7-7-777-2-2-222-3-33-5-55-|
A|-----------------------------------|
E|-----------------------------------|

e|--------------------------|
B|--------------------------|
G|-5--5---------------------|
D|------7--7-2--2-3-33-5-55-|
A|--------------------------|
E|--------------------------|

e|------------------------------------|
B|------------------------------------|
G|-5-5-5b-----------------------------|
D|--------7-7777b7b-2-2-222-3-33-5-55-|
A|------------------------------------|
E|------------------------------------|

Song Structure:
Main Riff x4
Verse x2
Main Riff x2
Chorus x1
Main Riff x2
Verse x2
Chorus x1
Main Riff x2
Solo
Chorus x1

| /  slide up
| \  slide down
| h  hammer-on
| p  pull-off
| ~  vibrato
| +  harmonic
| x  Mute note
============================================================================
Tap to rate this tab
 
# A B C D E F G H I J K L M N O P Q R S T U V W X Y Z