Song name
# A B C D E F G H I J K L M N O P Q R S T U V W X Y Z

Misc Unsigned Bands - Vx12 - Adrenaline tab

inro
  |-----------------------------------------|
  |-----------------------------------------|
  |-----------------------------------------|
  |-5~~7~~9~~7~~5~~7~777777777777-----------|
  |-5~~7~~9~~7~~5~~7~777777777777-----------|
  |-3~~5~~7~~7~~5~~7~777777777777-----------|

  everyone is pushing everyone is running everyone is moving around n around
  everyone is happy everyone is dancin everyone is jumping up n down
  |---------------------------------------------|
  |---------------------------------------------|
  |---------------------------------------------|
  |---------------------------------------------|
  |-12-9-77-9-12-9-77-9-15-12-99-10-15-12-99-12-|
  |-10-7-55-7-10-7-55-7-13-10-77-10-13-10-77-10-|

  everyone is sweaty everyone is ready everyone is just fired up
  everyone is rockin everyone is jamin everyone is screaming "Lets rock out loud"
  |---------------------------------------------|
  |---------------------------------------------|
  |---------------------------------------------|
  |---------------------------------------------|
  |-12-9-77-9-12-9-77-9-15-12-99-10-15-12-99-12-|
  |-10-7-55-7-10-7-55-7-13-10-77-10-13-10-77-10-|

 This is adrenaline  this is adrenaline
 ADRENALINE          ADRENALINE
 this id adrenaline  this is adrenaline
 ADRENALINE          ADRENALINE
 this is adrenaline  this is adrenaline
 ADRENALINE          ADRENALINE
 this is adrenaline  this is adrenaline
 ADRENALINE          ADRENALINE
 |-----------------------------------------------------------------------|
 |-----------------------------------------------------------------------|
 |-----------------------------------------------------------------------|
 |-xxx5-xxx5-xxx567-xxx5-xxx5-xxx765-xxx5-xx5-xxx567-xxx5xxx5xxx765------|
 |-xxx5-xxx5-xxx567-xxx5-xxx5-xxx765-xxx5-xx5-xxx567-xxx5xxx5xxx765------|
 |-xxx3-xxx3-xxx345-xxx3-xxx3-xxx543-xxx3-xx3-xxx345-xxx3xxx3xxx543------|

  everyone is pushing everyone is running everyone is moving around n around
  everyone is happy everyone is dancin everyone is jumping up n down
  |---------------------------------------------|
  |---------------------------------------------|
  |---------------------------------------------|
  |---------------------------------------------|
  |-12-9-77-9-12-9-77-9-15-12-99-10-15-12-99-12-|
  |-10-7-55-7-10-7-55-7-13-10-77-10-13-10-77-10-|

  everyone is sweaty everyone is ready everyone is just fired up
  everyone is rockin everyone is jamin everyone is screaming "Lets rock out loud"
  |---------------------------------------------|
  |---------------------------------------------|
  |---------------------------------------------|
  |---------------------------------------------|
  |-12-9-77-9-12-9-77-9-15-12-99-10-15-12-99-12-|
  |-10-7-55-7-10-7-55-7-13-10-77-10-13-10-77-10-|

 This is adrenaline  this is adrenaline
 ADRENALINE          ADRENALINE
 this id adrenaline  this is adrenaline
 ADRENALINE          ADRENALINE
 this is adrenaline  this is adrenaline
 ADRENALINE          ADRENALINE
 this is adrenaline  this is adrenaline
 ADRENALINE          ADRENALINE
 |-----------------------------------------------------------------------|
 |-----------------------------------------------------------------------|
 |-----------------------------------------------------------------------|
 |-xxx5-xxx5-xxx567-xxx5-xxx5-xxx765-xxx5-xx5-xxx567-xxx5xxx5xxx765------|
 |-xxx5-xxx5-xxx567-xxx5-xxx5-xxx765-xxx5-xx5-xxx567-xxx5xxx5xxx765------|
 |-xxx3-xxx3-xxx345-xxx3-xxx3-xxx543-xxx3-xx3-xxx345-xxx3xxx3xxx543------|

ADRENALINE...             ADRENALINE...        ADRENALINE...   
|-------------------------------------------------------------------------|
|----------12------------------12-----------------10----------------10----|
|--11-12-13--11-12-13--11-12-13--11-12-13--9-10-11--9-10-11--9-10-11--9-10|
|12------------------12------------------10----------------10-------------|
|-------------------------------------------------------------------------|
|-------------------------------------------------------------------------|

ADRENALINE...             ADRENALINE...        ADRENALINE...
|-------------------------------------------------------------------------|
|----------12------------------12-----------------10----------------10----|
|--11-12-13--11-12-13--11-12-13--11-12-13--9-10-11--9-10-11--9-10-11--9-10|
|12------------------12------------------10----------------10-------------|
|-------------------------------------------------------------------------|
|-------------------------------------------------------------------------|

  everyoine is talking most peaople are shouting everyone is having a really great time
  |---------------------------------------------|
  |---------------------------------------------|
  |---------------------------------------------|
  |---------------------------------------------|
  |-12-9-77-9-12-9-77-9-15-12-99-10-15-12-99-12-|
  |-10-7-55-7-10-7-55-7-13-10-77-10-13-10-77-10-|

  everyone is hyper everyone is crazy everyone is going wild up in here
  |---------------------------------------------|
  |---------------------------------------------|
  |---------------------------------------------|
  |---------------------------------------------|
  |-12-9-77-9-12-9-77-9-15-12-99-10-15-12-99-12-|
  |-10-7-55-7-10-7-55-7-13-10-77-10-13-10-77-10-|

 This is adrenaline  this is adrenaline
 ADRENALINE          ADRENALINE
 this id adrenaline  this is adrenaline
 ADRENALINE          ADRENALINE
 this is adrenaline  this is adrenaline
 ADRENALINE          ADRENALINE
 this is adrenaline  this is adrenaline
 ADRENALINE          ADRENALINE
 |-----------------------------------------------------------------------|
 |-----------------------------------------------------------------------|
 |-----------------------------------------------------------------------|
 |-xxx5-xxx5-xxx567-xxx5-xxx5-xxx765-xxx5-xx5-xxx567-xxx5xxx5xxx765------|
 |-xxx5-xxx5-xxx567-xxx5-xxx5-xxx765-xxx5-xx5-xxx567-xxx5xxx5xxx765------|
 |-xxx3-xxx3-xxx345-xxx3-xxx3-xxx543-xxx3-xx3-xxx345-xxx3xxx3xxx543------|

[music stopz except for drums]
now everyone get a monster get a red bull get a rockstarr
drink it up n go wild now lets get this party wired up.
 
solo
  Rhythm-Guitar
  |---------------------------------------------|
  |---------------------------------------------|
  |---------------------------------------------|
  |---------------------------------------------|
  |-12-9-77-9-12-9-77-9-15-12-99-10-15-12-99-12-|
  |-10-7-55-7-10-7-55-7-13-10-77-10-13-10-77-10-|

  Lead-Guitar
  |--------------------------------------------------|
  |-12-9-7-9b9-12-9-7-9b9-15-12-9-12b12-15-12-9-12b12|
  |--------------------------------------------------|
  |--------------------------------------------------|
  |--------------------------------------------------|
  |--------------------------------------------------|

  Rhythm-Guitar
  |---------------------------------------------|
  |---------------------------------------------|
  |---------------------------------------------|
  |---------------------------------------------|
  |-12-9-77-9-12-9-77-9-15-12-99-10-15-12-99-12-|
  |-10-7-55-7-10-7-55-7-13-10-77-10-13-10-77-10-|

  Lead-Guitar
  |--------------------------------------------------|
  |-12-9-7-9b9-12-9-7-9b9-15-12-9-12b12-15-12-9-12b12|
  |--------------------------------------------------|
  |--------------------------------------------------|
  |--------------------------------------------------|
  |--------------------------------------------------|

  Rhythm-Guitar
  |---------------------------------------------|
  |---------------------------------------------|
  |---------------------------------------------|
  |---------------------------------------------|
  |-12-9-77-9-12-9-77-9-15-12-99-10-15-12-99-12-|
  |-10-7-55-7-10-7-55-7-13-10-77-10-13-10-77-10-|

  Lead-Guitar
  |------------------------------------------------------|
  |-15-12-13-9-12-9-10-7h9h7h9-15-12-13-9-12-9-10-7h9h7h9|
  |------------------------------------------------------|
  |------------------------------------------------------|
  |------------------------------------------------------|
  |------------------------------------------------------|

  Rhythm-Guitar
  |---------------------------------------------|
  |---------------------------------------------|
  |---------------------------------------------|
  |---------------------------------------------|
  |-12-9-77-9-12-9-77-9-15-12-99-10-15-12-99-12-|
  |-10-7-55-7-10-7-55-7-13-10-77-10-13-10-77-10-|

  Lead-Guitar
  |---------------------------------------|
  |-12-9-10-12-14-12-13-15~~~-------------|
  |---------------------------------------|
  |---------------------------------------|
  |---------------------------------------|
  |---------------------------------------|

  everyone is pushing everyone is running everyone is moving around n around
  everyone is happy everyone is dancin everyone is jumping up n down
  |---------------------------------------------|
  |---------------------------------------------|
  |---------------------------------------------|
  |---------------------------------------------|
  |-12-9-77-9-12-9-77-9-15-12-99-10-15-12-99-12-|
  |-10-7-55-7-10-7-55-7-13-10-77-10-13-10-77-10-|

  everyone is hyper everyone is crazy everyone is going wild up in here
  |---------------------------------------------|
  |---------------------------------------------|
  |---------------------------------------------|
  |---------------------------------------------|
  |-12-9-77-9-12-9-77-9-15-12-99-10-15-12-99-12-|
  |-10-7-55-7-10-7-55-7-13-10-77-10-13-10-77-10-|

This is adrenaline  this is adrenaline
 ADRENALINE          ADRENALINE
 this id adrenaline  this is adrenaline
 ADRENALINE          ADRENALINE
 this is adrenaline  this is adrenaline
 ADRENALINE          ADRENALINE
 this is adrenaline  this is adrenaline
 ADRENALINE          ADRENALINE                          ADRENALINE!!!!!
 |-----------------------------------------------------------------------|
 |-----------------------------------------------------------------------|
 |-----------------------------------------------------------------------|
 |-xxx5-xxx5-xxx567-xxx5-xxx5-xxx765-xxx5-xx5-xxx567-xxx5xxx5xxx765~~----|
 |-xxx5-xxx5-xxx567-xxx5-xxx5-xxx765-xxx5-xx5-xxx567-xxx5xxx5xxx765~~----|
 |-xxx3-xxx3-xxx345-xxx3-xxx3-xxx543-xxx3-xx3-xxx345-xxx3xxx3xxx543~~----|
Tap to rate this tab
# A B C D E F G H I J K L M N O P Q R S T U V W X Y Z