Song name
# A B C D E F G H I J K L M N O P Q R S T U V W X Y Z

Misc Unsigned Bands - Gridlock - Just Live Your Life tab

This is a song me and my band wrote so if ur looking at this chances are you know me.

intro
------------------------------------------------|
------------------------------------------------|
------------------------------------------------| (x2)
---12-12-12-11-11-11----------------------------|
---------------------12-12-12-11-11-11----------|
---------------------------------------13-13-12-|(hold)


Verse(palm mute)
----------------------------------------------|
----------------------------------------------|
----------------------------------------------|
-3-3-3-3--5--5-5-5-5(x2)----------------------|After second time repeat only
-3-3-3-3--5--5-5-5-5--------------------------|with singing and then also
-3-3-3-3--5--5-5-5-5--------------------------|play this:

----------------------------------------------|
----------------------------------------------|
----------------------------------------------|
-1-1-1-1--3--3-3-3-3-(x2)---------------------|
-1-1-1-1--3--3-3-3-3--------------------------|
-1-1-1-1--3--3-3-3-3--------------------------|then play it again until prechorus


Prechorus:
the prechorus is the intro without distortion


Chorus
---------------------------------------------|
---------------------------------------------|
---------------------------------------------|
-5-5-5--5-5-5--7--7--7-7-7-------------------|
-5-5-5--5-5-5--7--7--7-7-7-------------------|
-5-5-5--5-5-5--7--7--7-7-7-------------------|
                                                (x2)
---------------------------------------------|
---------------------------------------------|
---------------------------------------------|
-3-3-3--3-3-3--5--5--5-5-5-------------------|
-3-3-3--3-3-3--5--5--5-5-5-------------------|
-3-3-3--3-3-3--5--5--5-5-5-------------------|
Repeat verse/prechorus then this bridge comes

---------------------------------------------|
---------------------------------------------|
-2------------3------------------------------|
-2-(tremolo)--3-(tremolo)--------------------|
-0------------1------------------------------|
---------------------------------------------|

Repeat chorus twice then solo comes

---------------------------------------------------|
---------------------------------------------------|
---------------------------------------------------|(play once then chorus.
-12-12-12-15-14-12---------12-12-12-15-14-12-------| then repeat till fade)
------------------12-12----------------------13-13-|
---------------------------------------------------|
Tap to rate this tab
# A B C D E F G H I J K L M N O P Q R S T U V W X Y Z