Song name
# A B C D E F G H I J K L M N O P Q R S T U V W X Y Z

Misc Unsigned Bands - Vinnie Martinelli - The Light Song tab

This is kinda a cool song to learn and the song can help you can fret faster. This was a 
I made!
Intro:

E|------2-2---------2-2---------2-2---------2---------2----2-----------------|
A|----3-----3-----3-----3-----3-----3-----3---3-----3--------3---------------|
D|--2---------2-2---------2-2---------2-2-------2-2------------2-------------|
G|---------------------------------------------------------------------------|
B|---------------------------------------------------------------------------|
E|---------------------------------------------------------------------------|

E|-----------2---2-----------2---2---------2----2----------------------------|
A|-----3---3---3---3---3---3---3---3----3----------3-------------------------|
D|--2----2-----------2---2-----------2----------------2----------------------|
G|---------------------------------------------------------------------------|
B|---------------------------------------------------------------------------|
E|---------------------------------------------------------------------------|

E|--------2-------2-------2-------2------2----2------------------------------|
A|----3-------3-------3-------3--------3--------3----------------------------|
D|--2---2---2---2---2---2---2---2----2------------2--------------------------|
G|---------------------------------------------------------------------------|
B|---------------------------------------------------------------------------|
E|---------------------------------------------------------------------------|

E|------------2---2-----------2---2-----2----2-------------------------------|
A|----3---3-----------3---3-----------3--------3-----------------------------|
D|--2---2---2---2---2---2---2---2---2------------2---------------------------|
G|---------------------------------------------------------------------------|
B|---------------------------------------------------------------------------|
E|---------------------------------------------------------------------------|

E|----2-----2-----2-----2-------2----2------2--------------------------------|
A|------3-----3-----3-----3---3--------3----3--------------------------------|
D|--2-----2-----2-----2-----2------------2--2--------------------------------|
G|---------------------------------------------------------------------------|
B|---------------------------------------------------------------------------|
E|---------------------------------------------------------------------------|
Tap to rate this tab
# A B C D E F G H I J K L M N O P Q R S T U V W X Y Z