Guitaretab - guitar tabs
Song name
# A B C D E F G H I J K L M N O P Q R S T U V W X Y Z

Misc Unsigned Bands - Barefoot Truth - Walk Softly tab

Walk Softly
Barefoot Truth
Tabbed By Rusty Snow

Great song.. this is just the intro fill and
verse chords which i figured out from watching
their live video

e-----------------------|
B-----------------------|
G----6--5----5----------|
D----------8----8--5----| intro fill
A-----------------------|
E-----------------------|


Intro/Verse
[ Tab from: http://www.guitaretab.com/m/misc-unsigned-bands/111853.html ]
e----3----x----1----x----x----|
B----3----3----1----3----5----|
G----4----3----2----3----5----|
D----5----3----3----2----4----| x2
A----5----x----3----3----5----|
E----3----x----1----x----x----|
     G    A#   F    C9   D9
to play the verse they change just the beginning
a bit so its like this

e----3----|
B----3----|
G----4----|
D----5----| x1  thats right before
A----5----|     break down the borders...
E----3----|
     G
then it uses the C9(no 5th) and D9(no 5th) chords.. you can
hear when jay plays them then it it goes back to the verse
part when they say "we ask the gov..."

im still working on the rest now hope this start helps
email me with the rest or suggest.
stras16@moravian.edu
Related for Barefoot Truth - Walk Softly tab