Song name
# A B C D E F G H I J K L M N O P Q R S T U V W X Y Z

Misc Unsigned Bands - The El Loco Fwaba Xperience - Quansul tab

Intro/Chorus:
e|---------------------------------------------------------------------------|
B|---------------------------------------------------------------------------|
G|---------------------------------------------------------------------------|
D|3--3-------3--3------------------------------------------------------------|
A|3--3-------3--3------------------------------------------------------------|
E|1--1-------1--1------------------------------------------------------------|
(Repeat as necessary)

Main Riff:
e|---------------------------------------------------------------------------|
B|---------------------------------------------------------------------------|
G|------2-2-2-3-3-3----------------------------------------------------------|
D|3-3-3-2-2-2-3-3-3-4-4-4----------------------------------------------------|
A|3-3-3-0-0-0-1-1-1-4-4-4----------------------------------------------------|
E|1-1-1-------------2-2-2----------------------------------------------------|
(Repeat as necessary)

Chorus

Main riff

Chorus
Tap to rate this tab
# A B C D E F G H I J K L M N O P Q R S T U V W X Y Z