Song name
# A B C D E F G H I J K L M N O P Q R S T U V W X Y Z

Misc Unsigned Bands - The Process Of Tragedy - Unsaved tab

~=Pinch Harmonic
.=Palm Mute


Guitar 1+2
e|--------------------------------|
b|--------------------------------|
g|--------------------------------|
d|--------------------------------| X4
a|--------------------------------|
e|----------------------------3333|
a|0000333311110000333300001111----|


Guitar 1+2
e|--------------------------------|
b|--------------------------------|
g|--------------------------------|
d|--------------------------------| X4
a|--------------------------------|
e|0---3---1---0---3---0---1---3333|
a|0---3---1---0---3---0---1-------|
  .   .   .   .   .   .   .

Guitar 1+2
e|--------------------------------|
b|--------------------------------|
g|--------------------------------|
d|--------------------------------| X4
a|--------------------------------|
e|----------------------------3333|
a|0000333311110000333300001111----|


Guitar 1+2
e|------------------------------|
b|------------------------------|
g|------------------------------|
d|------------------------------| X4
a|------------------------------|
e|0---3---1---0---3---0---1---3~|
a|0---3---1---0---3---0---1-----|
  .   .   .   .   .   .   .

Guitar 1+2
e|-------------------------------|
b|-------------------------------|
g|-------------------------------|
d|-------------------------------| X4
a|-------------------------------|
e|----4~----4~--4~----4~0-3-4-1-7|
a|0303--0303--03--0303--0-3-4-1-7|
  ....  ....  ..  ....  . . . . .

Guitar 1
e|------------------------------|
b|------------------------------|
g|------------------------------|
d|------------------------------| X1
a|------------------------------|
e|----4~----4~--4~----4~----4~--|
a|0303--0303--03--0303--0303--00|
  ....  ....  ..  ....  ....  ..

Guitar 1
e|--------------------------------|
b|--------------------------------|
g|--------------------------------|
d|--------------------------------| X4
a|--------------------------------|
e|----4~----4~--4~----4~----4~--4~|
a|0303--0303--03--0303--0303--03--|
  ....  ....  ..  ....  ....  ..

Guitar 2
e|------------------------------------|
b|------------------------------------|
g|------------------------------------|
d|777777777777888866666666666610101010| X4
a|xxxxxxxxxxxxxxxxxxxxxxxxxxxxxxxxxxxx|
e|555555555555666644444444444412121212|
a|------------------------------------|


Guitar 1+2
e|-------------------------------|
b|-------------------------------|
g|-------------------------------|
d|-------------------------------| X4
a|-------------------------------|
e|----4~----4~--4~----4~0-3-4-1-7|
a|0303--0303--03--0303--0-3-4-1-7|
  ....  ....  ..  ....  . . . . .

Guitar 1+2
e|---------------------------------|\
b|---------------------------------| \ 
g|---------------------------------|  \
d|---------------------------------| X1\
a|---------------------------------|    \
e|1-1111----1111-1111-1111---------|     \
a|0-0000----0000-0000-0000---------|      \
  . ....    .... .... ....                 \
                                            X4
Guitar 1+2                                 /
e|---------------------------------|      /
b|---------------------------------|     /
g|---------------------------------|    /
d|---------------------------------| X1/
a|---------------------------------|  /
e|1-1111----1111-1111-1111----1-2-0| /
a|0-0000----0000-0000-0000----3-4-1|/
  . ....    .... .... ....    . . .

Guitar 1
e|-------------------------|
b|-------------------------|
g|-------------------------|
d|-------------------------| X1
a|-------------------------|
e|1-2-0-0-5555-1-2-0-0-5555|
a|3-4-1-0------3-4-1-0-----|
  . . . .      . . . .

Guitar 1+2
e|---------------------------------------------------|
b|---------------------------------------------------|
g|---------------------------------------------------|
d|---------------------------------------------------| X2
a|---------------------------------------------------|
e|1-2-0-0-5555-1-2-0-0-5555-1-2-0-0-4444-1-2-0-0-4444|
a|3-4-1-0------3-4-1-0------3-4-1-0------3-4-1-0-----|
  . . . .      . . . .      . . . .      . . . .

Guitar 1
e|---------------------------------------------------|
b|---------------------------------------------------|
g|---------------------------------------------------|
d|---------------------------------------------------| X2
a|---------------------------------------------------|
e|1-2-0-0-8888-1-2-0-0-8888-1-2-0-0-7777-1-2-0-0-7777|
a|3-4-1-0------3-4-1-0------3-4-1-0------3-4-1-0-----|
  . . . .      . . . .      . . . .      . . . . 

Guitar 2
e|---------------------------------------------------|
b|---------------------------------------------------|
g|---------------------------------------------------|
d|---------------------------------------------------| X2
a|---------------------------------------------------|
e|1-2-0-0-5555-1-2-0-0-5555-1-2-0-0-4444-1-2-0-0-4444|
a|3-4-1-0------3-4-1-0------3-4-1-0------3-4-1-0-----|
  . . . .      . . . .      . . . .      . . . .

Guitar 1+2
e|----------------------------------------------------|
b|----------------------------------------------------|
g|----------------------------------------------------|
d|----------------------------------------------------| X2
a|----------------------------------------------------|
e|----55555555----44444444----55555555----8888----7777|
a|0000--------0000--------0000--------8888----7777----|


Guitar 1
e|------------------------------------------------------------|
b|------------------------------------------------------------|
g|------------------------------------------------------------|
d|------------------------------------------------------------| X2
a|------------------------------------------------------------|
e|----88888888----77777777----88888888----11111111----10101010|
a|0000--------0000--------0000--------8888--------7777--------|


Guitar 2
e|----------------------------------------------------|
b|----------------------------------------------------|
g|----------------------------------------------------|
d|----------------------------------------------------| X2
a|----------------------------------------------------|
e|----55555555----44444444----55555555----8888----7777|
a|0000--------0000--------0000--------8888----7777----|


Guitar 1+2
e|---------------------------------------------|
b|---------------------------------------------|
g|---------------------------------------------|
d|--7--7----6--6---6---7--7--------------------| X2
a|--x--x----x--x---x---x--x--------------------|
e|--5--5----4--4---5---5--5--------8888----8888|
a|0-------0------0---0-------0-8888----7777----|
  .       .      .   .       .

Guitar 1
e|-----------------------------------------------------|
b|-----------------------------------------------------|
g|-----------------------------------------------------|
d|--10-10---9--9---9---10-10---------------------------| X2
a|--x--x----x--x---x---x--x----------------------------|
e|--8--8----7--7---7---8--8--------11111111----10101010|
a|0-------0------0---0-------0-8888--------7777--------|
  .       .      .   .       .

Guitar 2
e|---------------------------------------------|
b|---------------------------------------------|
g|---------------------------------------------|
d|--7--7----6--6---6---7--7--------------------| X2
a|--x--x----x--x---x---x--x--------------------|
e|--5--5----4--4---5---5--5--------8888----8888|
a|0-------0------0---0-------0-8888----7777----|
  .       .      .   .       .

Guitar 1
e|-----------------------------|
b|-----------------------------|
g|-----------------------------|
d|-----------------------------| X2
a|-----------------------------|
e|0-3-1-0--------3-1-0-3-0-1-3~|
a|0-3-1-0--------3-1-0-3-0-1---|
  . . . .        . . . . . .

Guitar 1+2
e|-----------------------------|
b|-----------------------------|
g|-----------------------------|
d|-----------------------------| X8
a|-----------------------------|
e|0-3-1-0--------3-1-0-3-0-1-3~|
a|0-3-1-0--------3-1-0-3-0-1---|
  . . . .        . . . . . .

Check us out www.myspace.com/1fsm
Tap to rate this tab
 
# A B C D E F G H I J K L M N O P Q R S T U V W X Y Z