Song name
# A B C D E F G H I J K L M N O P Q R S T U V W X Y Z

Misc Unsigned Bands - Shelbyville - Thicket Of Solitude tab

Artist: Shelbyville
Album: Manhattan
Song: Thicket Of Solitude

Tuning: DADGBE

/ = SLIDE UP
\ = SLIDE DOWN
h = HAMMER ON
p = PULL OFF
. = PALM MUTE


--------------------
Intro:
--------------------

Guitar 1
E|-----------------|-------------------|-----------------|---------------|
B|-----------------|-------------------|-----------------|---------------|
G|-----------------|-7-7-7-------------|-----------------|---------------|
D|-----------------|-------5-5-5-4-4-4-|-2-2-2-2-2-2-2-2-|-5-5-5-5-5-5/7-|
A|-5-5-5-5-5-5-5-5-|-------------------|-----------------|---------------|
D|-----------------|-------------------|-----------------|---------------| x2

Guitar 2
E|-----------------|-------------------|-----------------|---------------|
B|-----------------|-------------------|-----------------|---------------|
G|-----------------|-------------------|-----------------|---------------|
D|-----------------|-------------------|-----------------|---------------|
A|-5-5-5-5-5-5-5-5-|-------------------|-2-2-2-2-2-2-2-2-|-3-3-3-3-3-3-3-|
D|-----------------|-5-5-5-5-5-5-5-5-5-|-----------------|---------------| x2


--------------------
Verse:
--------------------

Guitar 1 & 2
E|---------------------------------|------------------------|
B|---------------------------------|------------------------|
G|-7-7-7-7-7-7-7-7-7-7-7-7-7-7-7-7-|------------------------|
D|-7-7-7-7-7-7-7-7-7-7-7-7-7-7-7-7-|-4-4--4-4-4--4-5-5--5-5-|
A|-5-5-5-5-5-5-5-5-5-5-5-5-5-5-5-5-|-4-4--4-4-4--4-5-5--5-5-|
D|---------------------------------|-4-4--4-4-4--4-5-5--5-5-|

E|-----------------|-----------------|-----------------|-----------------|
B|-----------------|-----------------|-----------------|-----------------|
G|-4-4-4-4-4-4-4-4-|-5-5-5-5-5-5-5-5-|-----------------|-7-7-7-7-7-7-7-7-|
D|-4-4-4-4-4-4-4-4-|-5-5-5-5-5-5-5-5-|-5-5-5-5-5-5-5-5-|-7-7-7-7-7-7-7-7-|
A|-2-2-2-2-2-2-2-2-|-3-3-3-3-3-3-3-3-|-5-5-5-5-5-5-5-5-|-5-5-5-5-5-5-5-5-|
D|-----------------|-----------------|-5-5-5-5-5-5-5-5-|-----------------|

E|------------------------|-----------------|-----------------|
B|------------------------|-----------------|-----------------|
G|------------------------|-7-7-7-7-7-7-7-7-|-9-9-9-9-9-9-9-9-|
D|-4-4--4-4-4--4-5-5--5-5-|-x-x-x-x-x-x-x-x-|-x-x-x-x-x-x-x-x-|
A|-4-4--4-4-4--4-5-5--5-5-|-5-5-5-5-5-5-5-5-|-7-7-7-7-7-7-7-7-|
D|-4-4--4-4-4--4-5-5--5-5-|-----------------|-----------------|


--------------------
Chorus:
--------------------

Guitars 1 & 2 (Listen to song for strumming.)
E|-----------------|-----------------|-----------------|-----------------|
B|-----------------|-----------------|-----------------|-----------------|
G|-----------------|-----------------|-7-7-7-7-7-7-7-7-|-----------------|
D|-9-9-9-9-9-9-9-9-|-5-5-5-5-5-5-5-5-|-7-7-7-7-7-7-7-7-|-5-5-5-5-5-5-5-5-|
A|-9-9-9-9-9-9-9-9-|-5-5-5-5-5-5-5-5-|-5-5-5-5-5-5-5-5-|-5-5-5-5-5-5-5-5-|
E|-9-9-9-9-9-9-9-9-|-5-5-5-5-5-5-5-5-|-----------------|-5-5-5-5-5-5-5-5-|

E|-----------------|----------------|
B|-----------------|----------------|
G|-----------------|----------------|
D|-9-9-9-9-9-9-9-9-|-10-10-10-10-10-|
A|-9-9-9-9-9-9-9-9-|-10-10-10-10-10-|
E|-9-9-9-9-9-9-9-9-|-10-10-10-10-10-|


--------------------
Bridge:
--------------------

Guitar 1
E|-----------------|-------------------|-----------------|---------------|
B|-----------------|-------------------|-----------------|---------------|
G|-----------------|-7-7-7-------------|-----------------|---------------|
D|-----------------|-------5-5-5-4-4-4-|-2-2-2-2-2-2-2-2-|-5-5-5-5-5-5/7-|
A|-5-5-5-5-5-5-5-5-|-------------------|-----------------|---------------|
D|-----------------|-------------------|-----------------|---------------|

E|-----------------|-------------------|-----------------|---------------|
B|-----------------|-------------------|-----------------|---------------|
G|-----------------|-7-7-7-------------|-----------------|---------------|
D|-----------------|-------5-5-5-4-4-4-|-2-2-2-2-2-2-2-2-|-5-5-5-5-5-5-5-|
A|-5-5-5-5-5-5-5-5-|-------------------|-----------------|---------------|
D|-----------------|-------------------|-----------------|---------------|

Guitar 2
E|-----------------|-------------------|-----------------|---------------|
B|-----------------|-------------------|-----------------|---------------|
G|-----------------|-------------------|-----------------|---------------|
D|-----------------|-------------------|-----------------|---------------|
A|-5-5-5-5-5-5-5-5-|-------------------|-2-2-2-2-2-2-2-2-|-3-3-3-3-3-3-3-|
D|-----------------|-5-5-5-5-5-5-5-5-5-|-----------------|---------------| x2

Guitar 1 & 2
E|--------------|---------------------------------|---------------------------------|
B|--------------|---------------------------------|---------------------------------|
G|--------------|---------------------------------|---------------------------------|
D|-0-0--0-0-0-0-|-0-0-0-0-0-0-0-0-0-0-0-0-2-2-2-2-|-5-5-5-5-5-5-5-5-5-5-5-5-5-5-5-5-|
A|-0-0--0-0-0-0-|-0-0-0-0-0-0-0-0-0-0-0-0-2-2-2-2-|-5-5-5-5-5-5-5-5-5-5-5-5-5-5-5-5-|
E|-0-0--0-0-0-0-|-0-0-0-0-0-0-0-0-0-0-0-0-2-2-2-2-|-5-5-5-5-5-5-5-5-5-5-5-5-5-5-5-5-|
            .     . . . . . . . . . . . . . . . .   . . . . . . . . . . . . . . . . 

E|---------------------------------|-----------------------------|
B|---------------------------------|-----------------------------|
G|---------------------------------|-----------------------------|
D|-0-0-0-0-0-0-0-0-0-0-0-0-2-2-2-2-|-5-5-5-5-5-5-5-5--7--7--7--7-|
A|-0-0-0-0-0-0-0-0-0-0-0-0-2-2-2-2-|-5-5-5-5-5-5-5-5--7--7--7--7-|
E|-0-0-0-0-0-0-0-0-0-0-0-0-2-2-2-2-|-5-5-5-5-5-5-5-5--7--7--7--7-|
   . . . . . . . . . . . . . . . .   . . . . . . .


--------------------
Verse:
--------------------


--------------------
Chorus
--------------------


--------------------
Interlude:
--------------------

Guitar 1
E|------------------------|------------|------------|
B|------------------------|------------|------------|
G|------------------------|------------|------------|
D|----0-----0-----0-----0-|----0-----0-|----0-----0-|
A|------------------------|------------|------------|
E|-0-0---0-0---0-0---0-0--|-2-2---2-2--|-5-5---5-5--| x5
   . .   . .   . .   . .    . .   . .    . .   . .

E|------------------------|------------|-----------|
B|------------------------|------------|-----------|
G|------------------------|------------|-----------|
D|----0-----0-----0-----0-|----0-----0-|----0----0-|
A|------------------------|------------|-----------|
E|-0-0---0-0---0-0---0-0--|-2-2---2-2--|-5-5--5-5--| 
   . .   . .   . .   . .    . .   . .    . .  . .

Guitar 2
E|-------------------------------------------|---------------------|------------------------|
B|-------------------------------------------|---------------------|------------------------|
G|-11-11-11----------------------------------|------------11-11-11-|----------9-9-9-9-9-9-9-|
D|----------12-12-12-------------------------|---------------------|------------------------|
A|-------------------12-12-12-12-12-12-12-12-|-9-10-10-10----------|-12-12-12---------------|
E|-------------------------------------------|---------------------|------------------------| x3

E|-------------------------------------------|---------------------|--------------------|
B|-------------------------------------------|---------------------|--------------------|
G|-11-11-11----------------------------------|------------11-11-11-|----------9-9-9-9-9-|
D|----------12-12-12-------------------------|---------------------|--------------------|
A|-------------------12-12-12-12-12-12-12-12-|-9-10-10-10----------|-12-12-12-----------|
E|-------------------------------------------|---------------------|--------------------|

Guitar 1 & 2

E|---------------------------------|-----------------|-----------------|
B|---------------------------------|-----------------|-----------------|
G|---------------------------------|-----------------|-----------------|
D|-0-0-0-0-0-0-0-0-0-0-0-0-0-0-0-0-|-2-2-2-2-2-2-2-2-|-5-5-5-5-5-5-5-5-|
A|-0-0-0-0-0-0-0-0-0-0-0-0-0-0-0-0-|-2-2-2-2-2-2-2-2-|-5-5-5-5-5-5-5-5-|
E|-0-0-0-0-0-0-0-0-0-0-0-0-0-0-0-0-|-2-2-2-2-2-2-2-2-|-5-5-5-5-5-5-5-5-| x3
   . . . . . . . . . . . . . . . .   . . . . . . . .   . . . . . . . .

E|---------------------------------|----------|-----------|
B|---------------------------------|----------|-----------|
G|---------------------------------|----------|-----------|
D|-0-0-0-0-0-0-0-0-0-0-0-0-0-0-0-0-|-2-2--2-2-|-5-5-5-5-5-|
A|-0-0-0-0-0-0-0-0-0-0-0-0-0-0-0-0-|-2-2--2-2-|-5-5-5-5-5-|
E|-0-0-0-0-0-0-0-0-0-0-0-0-0-0-0-0-|-2-2--2-2-|-5-5-5-5-5-|
   . . . . . . . . . . . . . . . .                  . .


--------------------
Outro:
--------------------

Guitar 1
E|----------------------------|--------------|---------------|
B|----------------------------|--------------|---------------|
G|----------------------------|--------------|---------------|
D|-0-0-7--0-0-7--0-0-7--0-0-7-|-5-5-5--5-5-5-|-2-2-4/5-2-2-2-|
A|-0-0----0-0----0-0----0-0---|-5-5----5-5---|-2-2-----2-2---|
E|-0-0----0-0----0-0----0-0---|-5-5----5-5---|-2-2-----2-2---| x2
   . .    . .    . .    . .     . .    . .     . .     . .

E|----------------------------|--------------|---------------|
B|----------------------------|--------------|---------------|
G|----------------------------|--------------|---------------|
D|-0-0-7--0-0-7--0-0-4--0-0-4-|-5-5-5--5-5-5-|-2-2-4/5-2-2-2-|
A|-0-0----0-0----0-0----0-0---|-5-5----5-5---|-2-2-----2-2---|
E|-0-0----0-0----0-0----0-0---|-5-5----5-5---|-2-2-----2-2---|
   . .    . .    . .    . .     . .    . .     . .     . .

E|----------------------------|--------------|---------------|
B|----------------------------|--------------|---------------|
G|----------------------------|--------------|---------------|
D|-0-0-7--0-0-7--0-0-7--0-0-7-|-5-5-5--5-5-5-|-2-2-4/5-2-2-2-|
A|-0-0----0-0----0-0----0-0---|-5-5----5-5---|-2-2-----2-2---|
E|-0-0----0-0----0-0----0-0---|-5-5----5-5---|-2-2-----2-2---|
   . .    . .    . .    . .     . .    . .     . .     . .

Guitar 2
E|--------------------|----------|----------|
B|--------------------|----------|----------|
G|--------------------|----------|----------|
D|-0-0--0-0--0-0--0-0-|-5-5--5-5-|-2-2--2-2-|
A|-0-0--0-0--0-0--0-0-|-5-5--5-5-|-2-2--2-2-|
E|-0-0--0-0--0-0--0-0-|-5-5--5-5-|-2-2--2-2-| x4
   . .  . .  . .  . .   . .  . .   . .  . .

Guitar 1 & 2
E|---------------|
B|---------------|
G|---------------|
D|-0-0-0-0-0-0-0-|
A|-0-0-0-0-0-0-0-|
E|-0-0-0-0-0-0-0-| 
       .     .

Tap to rate this tab
 
# A B C D E F G H I J K L M N O P Q R S T U V W X Y Z