Song name
# A B C D E F G H I J K L M N O P Q R S T U V W X Y Z

Misc Unsigned Bands - Kevin Fridley - This Endless War tab

This Endless War
Kevin Fridley

Intro/Chorus
  PM---|         PM--|        PM------------------------------|
d||-----------------------------------------------------------|
a||-----------------------------------------------------------|
f||-----------------------------------------------------------|
c||----------3p0-----------3p0----------------------3p0-------|
g||-0--0-1p0------0--0-1p0-----0--0--0--0--0--0-1p0-----------|
c||-0--0----------0--0---------0--0--0--0--0--0---------------|

  PM---|      PM---|       PM--|       PM--------------------|
d|-----------------------------------------------------------|
a|-----------------------------------------------------------|
f|-----------------------------------------------------------|
c|-------7\----------5\-----------8\-------------------------|
g|-0--0--8\----0--0--7\----0--0--10\----0--0--0--0--0--0-----|
c|-0--0--------0--0--------0--0---------0--0--0--0--0--0-----|

                                          PM--|   PM--|      x2
d|-----------------------------------------------------------||
a|-----------------------------------------------------------||
f|-10--10-10--10-10-10----5--5-5--5-5-5----------------------||
c|-10--10-10--10-10-10----5--5-5--5-5-5--------8-8-----3-3---||
g|--8---8--8---8--8--8----3--3-3--3-3-3------------1-1-------||
c|--8---8--8---8--8--8----3--3-3--3-3-3----5-5---------------||


Verse
d|--------------------------------------------------------------------------------|
a|--------------------------------------------------------------------------------|
f|--------------------------------------------------------------------------------|
c|-0------------------------------------------------------------------------------|
g|-0------------------------------------------------------------------------------|
c|-0------------------------------------------------------------------------------|
 |                                                                                |
 | Clean Guitar                                                                   |
d|-----------------------------|--------------------------------------------------|
a|-----------------------------|--------------------------------------------------|
f|--------------------------10-|----10---------10---------------------------------|
c|-----7-8---7-----------10----|-------10---------10----------5-----------5-------|
g|---5---------5-------8-------|----------8----------8-----3-----3-----3-----3----|
c|-0-------------0--8----------|-8----------------------3-----------2-------------|


d|-----------------------------|--------------------------------------------------|
a|-----------------------------|--------------------------------------------------|
f|--------------------------10-|----10---------10---------------------------------|
c|-----7-8---7-----------10----|-------10---------10----------5-----------5-------|
g|---5---------5-------8-------|----------8----------8-----3-----3-----3-----3----|
c|-0-------------0--8----------|-8----------------------3-----------2-------------|


     PM-----------|   PM----------|     PM------------------|  PM---|  PM----------|  x2
d||--------------------------------------------------------------------------------|
a||--------------------------------------------------------------------------------|
f||--------------------------------------------------------------------------------|
c||-0----------------8----------------10-----------------------3-------2-----------|
g||-0-0-0-0-0-0-0-0--8-8-8-8-8-8-8-8--10-10-10-10-10-10-10-10--3-3-3-3-3-3-3-3-----|
c||-0-0-0-0-0-0-0-0--8-8-8-8-8-8-8-8--10-10-10-10-10-10-10-10--3-3-3-3-2-2-2-2-----|


  PM---|         PM--|        PM------------------------------|
d||-----------------------------------------------------------|
a||-----------------------------------------------------------|
f||-----------------------------------------------------------|
c||----------3p0-----------3p0----------------------3p0-------|
g||-0--0-1p0------0--0-1p0-----0--0--0--0--0--0-1p0-----------|
c||-0--0----------0--0---------0--0--0--0--0--0---------------|

  PM---|      PM---|       PM--|       PM--------------------|
d|-----------------------------------------------------------|
a|-----------------------------------------------------------|
f|-----------------------------------------------------------|
c|-------7\----------5\-----------8\-------------------------|
g|-0--0--8\----0--0--7\----0--0--10\----0--0--0--0--0--0-----|
c|-0--0--------0--0--------0--0---------0--0--0--0--0--0-----|

                                          PM--|   PM--|      x2
d|-----------------------------------------------------------||
a|-----------------------------------------------------------||
f|-10--10-10--10-10-10----5--5-5--5-5-5----------------------||
c|-10--10-10--10-10-10----5--5-5--5-5-5--------8-8-----3-3---||
g|--8---8--8---8--8--8----3--3-3--3-3-3------------1-1-------||
c|--8---8--8---8--8--8----3--3-3--3-3-3----5-5---------------||


Guitar Solo
d|--------------------------------------------------------------------------|
a|-13bfr(13)p10--13bfr(13)p10--13~~~~~-----13-15-15bfr(15)-13-15-13~~~~~----|
f|-------------------------------------/14----------------------------------|
c|--------------------------------------------------------------------------|
g|--------------------------------------------------------------------------|
c|--------------------------------------------------------------------------|

d|------------------------------------------------------------|
a|----------------------------10------------------------------|
f|-----9-10-9h10p9----9-10-12----12-10\------9-10-9~~~~-------|
c|-/12-------------12--------------------/12------------------|
g|------------------------------------------------------------|
c|------------------------------------------------------------|

                                                               PM---|
d|-------------------------------10-13p12p10------------------------------------|
a|----------------------------10-------------13p12p10----------------10\--------|
f|---------------10~~~~----10-------------------------13p12p10-------10\--------|
c|--12bfr(12)p10--------12-------------------------------------12-12------------|
g|------------------------------------------------------------------------------|
c|------------------------------------------------------------------------------|


d|--------------------------------------------10--------------------------------|
a|-----------------------------------------10----10-13---10-13-10-13-15\--------|
f|-----------10-12-12bfr(12)p10----10-12bf--------------------------------------|
c|-----10-12--------------------12----------------------------------------------|
g|-/12--------------------------------------------------------------------------|
c|------------------------------------------------------------------------------|


d|-----------------------18p17p15-18p17p15-18p17p15-18p17p15-17~~~~~~\------|
a|-18bfr(18)-15~~~~---15----------------------------------------------------|
f|--------------------------------------------------------------------------|
c|--------------------------------------------------------------------------|E
g|--------------------------------------------------------------------------|N
c|--------------------------------------------------------------------------|D
 |                                                                          |
 |                                                                          |S
d|--------------------------------------------------------------------------|O
a|-----------------------20p18p17-20p18p17-20p18p17-20p18p17-18~~~~~~\------|L
f|--------------------------------------------------------------------------|O
c|--------------------------------------------------------------------------|
g|--------------------------------------------------------------------------|
c|--------------------------------------------------------------------------|


Rhythm for solo
d|------------------------------------------------------------------------|
a|------------------------------------------------------------------------|
f|------------------------------------------------------------------------|
c|-0--0-0-0--0-0-0--0-0-0--0-0--10--10-10-10--10-10-10--10-10-10--10-10---|
g|-0--0-0-0--0-0-0--0-0-0--0-0---8---8--8--8---8--8--8---8--8--8---8--8---|
c|-0--0-0-0--0-0-0--0-0-0--0-0---8---8--8--8---8--8--8---8--8--8---8--8---|

d|-------------------------------------------------------------|
a|-------------------------------------------------------------|
f|-------------------------------------------------------------|
c|-5--5-5-5--5-5-5--5-5-5--5-5---7--7-7-7--7-7-7--7-7-7--7-7---|
g|-3--3-3-3--3-3-3--3-3-3--3-3---5--5-5-5--5-5-5--5-5-5--7-7---|
c|-3--3-3-3--3-3-3--3-3-3--3-3---5--5-5-5--5-5-5--5-5-5--5-5---|

d|------------------------------------------------------------------------|
a|------------------------------------------------------------------------|
f|------------------------------------------------------------------------|
c|-0--0-0-0--0-0-0--0-0-0--0-0--10--10-10-10--10-10-10--10-10-10--10-10---|
g|-0--0-0-0--0-0-0--0-0-0--0-0---8---8--8--8---8--8--8---8--8--8---8--8---|
c|-0--0-0-0--0-0-0--0-0-0--0-0---8---8--8--8---8--8--8---8--8--8---8--8---|

                                               PM----------------|
d|---------------------------------------------------------------|
a|---------------------------------------------------------------|
f|---------------------------------------------------------------|
c|-5--5-5-5--5-5-5--5-5-5--5-5---7--7-7-7--7-7-5-5-5-5-5-5-5-5---|
g|-3--3-3-3--3-3-3--3-3-3--3-3---5--5-5-5--5-5-3-3-3-3-3-3-3-3---|
c|-3--3-3-3--3-3-3--3-3-3--3-3---5--5-5-5--5-5-3-3-3-3-2-2-2-2---|


Interlude
  PM--|                  PM------------------|                    PM-----------------|
d||--------------------------------------|-------------------------------------------|
a||--------------------------------------|-------------------------------------------|
f||--------------------------------------|-------------------------------------------|
c||-0-0-------------------0-0----0-0-0-0-|-3-3----------------------3-3----3-3-3-3---|
g||-0-0-------------------0-0----0-0-0-0-|-3-3----------------------3-3----3-3-3-3---|
c||-0-0-------------------0-0----0-0-0-0-|-3-3----------------------3-3----3-3-3-3---|
 ||
d||--------------------------------------|-----------------------------------------|
a||-----10h12p10----10-------------------|-----10h11p10----10----------------------|
f||--------------12----12-10-12\---/9-10-|--------------12----12-10-12\--/9-10-12--|
c||-/12----------------------------------|-/12-------------------------------------|
g||--------------------------------------|-----------------------------------------|
c||--------------------------------------|-----------------------------------------|
 ||
d||------8h10p-8-----8-------------------|------8h10p-8-----8----------------------|
a||--------------11----11-10-11\---/8-10-|--------------11----11-10-11\--/8-10-11--|
f||-/12----------------------------------|-/12-------------------------------------|
c||--------------------------------------|-----------------------------------------|
g||--------------------------------------|-----------------------------------------|
c||--------------------------------------|-----------------------------------------|


  PM--|                                                                           x2
d|--------------------------------------|-----------------------------------------||
a|--------------------------------------|-----------------------------------------||
f|--------------------------10-10-10-10-|-5-5-------------------------------------||
c|-5-5-----------------5-5--10-10-10-10-|-3-3---------------------5-5-----5-5-5-5-||
g|-5-5-----------------5-5---8--8--8--8-|-3-3---------------------3-3-----3-3-3-3-||
c|-5-5-----------------5-5---8--8--8--8-|-3-3---------------------3-3-----2-2-2-2-||
 |                                                                                ||
d|--------------------------------------|-----------------------------------------||
a|-----10h12p10----10-------------------|-----10h11p10----10----------------------||
f|--------------12----12-10-12\---/9-10-|--------------12----12-10-12\--/9-10-12--||
c|-/12----------------------------------|-/12-------------------------------------||
g|--------------------------------------|-----------------------------------------||
c|--------------------------------------|-----------------------------------------||
 |                                                                                ||
d|------8h10p-8-----8-------------------|------8h10p-8-----8----------------------||
a|--------------11----11-10-11\---/8-10-|--------------11----11-10-11\--/8-10-11--||
f|-/12----------------------------------|-/12-------------------------------------||
c|--------------------------------------|-----------------------------------------||
g|--------------------------------------|-----------------------------------------||
c|--------------------------------------|-----------------------------------------||


Outro Chorus


  PM---|         PM--|        PM------------------------------|
d||-----------------------------------------------------------|
a||-----------------------------------------------------------|
f||-----------------------------------------------------------|
c||----------3p0-----------3p0----------------------3p0-------|
g||-0--0-1p0------0--0-1p0-----0--0--0--0--0--0-1p0-----------|
c||-0--0----------0--0---------0--0--0--0--0--0---------------|
 |
d|----------------------------------------------------------|
a|-13\------first time only---------------------------------|
f|-14\------------------------------------------------------|
c|----------------------------------------------------------|
g|----------------------------------------------------------|
c|----------------------------------------------------------|


  PM---|      PM---|       PM--|       PM--------------------|
d|-----------------------------------------------------------|
a|-----------------------------------------------------------|
f|-----------------------------------------------------------|
c|-------7\----------5\-----------8\-------------------------|
g|-0--0--8\----0--0--7\----0--0--10\----0--0--0--0--0--0-----|
c|-0--0--------0--0--------0--0---------0--0--0--0--0--0-----|

                                          PM--|   PM--|      x2
d|-----------------------------------------------------------||
a|-----------------------------------------------------------||
f|-10--10-10--10-10-10----5--5-5--5-5-5----------------------||
c|-10--10-10--10-10-10----5--5-5--5-5-5--------8-8-----3-3---||
g|--8---8--8---8--8--8----3--3-3--3-3-3------------1-1-------||
c|--8---8--8---8--8--8----3--3-3--3-3-3----5-5---------------||


Key
h= hammer on
p= pull off
~= vibrato
\= slide from
/= slide to
PM= Palm pute
bf= bend full
r= release bend
Tap to rate this tab
# A B C D E F G H I J K L M N O P Q R S T U V W X Y Z