Song name
# A B C D E F G H I J K L M N O P Q R S T U V W X Y Z

Misc Unsigned Bands - Classmate 67 - Sweet Pea tab

Classmate 67 "Sweet Pea"
Written by David Devoe
Silent Night Records© 2008 


e|----------------------------------------------------------|
B|--5------3------4--2--0----5------3------4--2--0----------|
G|----------------------------------------------------------|
D|----------------------------------------------------------|
A|----------------------------------------------------------|
E|----------------------------------------------------------|


e|----------------------------------------------------------|
B|--5------3------4--2--0----5------3------4--2--0----------|
G|----------------------------------------------------------|
D|----------------------------------------------------------|
A|----------------------------------------------------------|
E|----------------------------------------------------------|

dist
e|----------------------------------------------------------|
B|----------------------------------------------------------|
G|----------------------------------------------------------|
D|--7------5------6--4--2----7------5------6--4--2----------|
A|--7------5------6--4--2----7------5------6--4--2----------|
E|--5------3------4--2--0----5------3------4--2--0----------|


e|----------------------------------------------------------|
B|----------------------------------------------------------|
G|----------------------------------------------------------|
D|--7------5------6--4--2----7------5------6--4--2----------|
A|--7------5------6--4--2----7------5------6--4--2----------|
E|--5------3------4--2--0----5------3------4--2--0----------|


e|----------------------------------------------------------|
B|----------------------------------------------------------|
G|----------------------------------------------------------|
D|--7------5------6--4--2----7------5------6--4--2----------|
A|--7------5------6--4--2----7------5------6--4--2----------|
E|--5------3------4--2--0----5------3------4--2--0----------|


e|----------------------------------------------------------|
B|----------------------------------------------------------|
G|----------------------------------------------------------|
D|--7------5------6--4--2----7------5------6--4--2----------|
A|--7------5------6--4--2----7------5------6--4--2----------|
E|--5------3------4--2--0----5------3------4--2--0----------|

(chorus riff)
e|----------------------------------------------------------|
B|----------------------------------------------------------|
G|----------------------------------------------------------|
D|--5--5-5---7--7-7---10-10-10-101010-1010101010-10-10------|
A|--5--5-5---7--7-7---10-10-10-101010-1010101010-10-10------|
E|--3--3-3---5--5-5---8--8--8--8-8-8--8-8-8-8-8--8--8-------|


e|----------------------------------------------------------|
B|----------------------------------------------------------|
G|----------------------------------------------------------|
D|--5--5-5---7--7-7-7-7----2--2-2---3--3-3-3-3---2---3------|
A|--5--5-5---7--7-7-7-7----2--2-2---3--3-3-3-3---2---3~-----|
e|--3--3-3---5--5-5-5-5----0--0-0---1--1-1-1-1---0---1~~----|

(verse riff) clean
e|----------------------------------------------------------|
B|----------------------------------------------------------|
G|----------------------------------------------------------|
D|----10---10---10-------2---------10---10---10-------2-----|
A|--10---10---10---10---2--------10---10---10---10---2------|
E|-8----8----8----8----0--------8----8----8----8----0-------|


e|----------------------------------------------------------|
B|----------------------------------------------------------|
G|----------------------------------------------------------|
D|----10---10---10-------2---------10---10---10-------2-----|
A|--10---10---10---10---2--------10---10---10---10---2------|
E|-8----8----8----8----0--------8----8----8----8----0-------|


e|----------------------------------------------------------|
B|----------------------------------------------------------|
G|----10---10---10-----------------10---10---10-------------|
D|--10---10---10---10----7-------10---10---10---10----7-----|
A|-8----8----8----8-----7-------8----8----8----8-----7------|
E|---------------------5----------------------------5-------|


e|----------------------------------------------------------|
B|----------------------------------------------------------|
G|----------------------------------------------------------|
D|----10---10---10-------2---------10---10---10-------2-----|
A|--10---10---10---10---2--------10---10---10---10---2------|
E|-8----8----8----8----0--------8----8----8----8----0-------|

(singing starts)
e|----------------------------------------------------------|
B|----------------------------------------------------------|
G|----------------------------------------------------------|
D|----10---10---10-------2---------10---10---10-------2-----|
A|--10---10---10---10---2--------10---10---10---10---2------|
E|-8----8----8----8----0--------8----8----8----8----0-------|


e|----------------------------------------------------------|
B|----------------------------------------------------------|
G|----------------------------------------------------------|
D|----10---10---10-------2---------10---10---10-------2-----|
A|--10---10---10---10---2--------10---10---10---10---2------|
E|-8----8----8----8----0--------8----8----8----8----0-------|


e|----------------------------------------------------------|
B|----------------------------------------------------------|
G|----10---10---10-----------------10---10---10-------------|
D|--10---10---10---10----7-------10---10---10---10----7-----|
A|-8----8----8----8-----7-------8----8----8----8-----7------|
E|---------------------5----------------------------5-------|


e|----------------------------------------------------------|
B|----------------------------------------------------------|
G|----------------------------------------------------------|
D|----10---10---10-------2---------10---10---10-------2-----|
A|--10---10---10---10---2--------10---10---10---10---2------|
E|-8----8----8----8----0--------8----8----8----8----0-------|


e|----------------------------------------------------------|
B|----------------------------------------------------------|
G|----10---10---10-----------------10---10---10-------------|
D|--10---10---10---10----7-------10---10---10---10----7-----|
A|-8----8----8----8-----7-------8----8----8----8-----7------|
E|---------------------5----------------------------5-------|


e|----------------------------------------------------------|
B|----------------------------------------------------------|
G|----------------------------------------------------------|
D|----10---10---10-------2------10-xxxx--xxxx--xxx-xx-------|
A|--10---10---10---10---2-------10-xxxx--xxxx--xxx-xx-------|
E|-8----8----8----8----0--------8--xxxx--xxxx--xxx-xx-------|

(verse) riff 2
e|----------------------------------------------------------|
B|----------------------------------------------------------|
G|----------------------------------------------------------|
D|-10---10--10--10---2-2-----10---10--10--10---2-2----------|
A|-10---10--10--10---2-2-----10---10--10--10---2-2----------|
E|-8----8---8---8----0-0-----8----8---8---8----0-0----------|


e|----------------------------------------------------------|
B|----------------------------------------------------------|
G|----------------------------------------------------------|
D|-10---10--10--10---2-2-----10---10--10--10---2-2----------|
A|-10---10--10--10---2-2-----10---10--10--10---2-2----------|
E|-8----8---8---8----0-0-----8----8---8---8----0-0----------|


e|----------------------------------------------------------|
B|----------------------------------------------------------|
G|-10---10--10--10-----------10---10--10--10----------------|
D|-10---10--10--10---7-7-----10---10--10--10---7-7----------|
A|-8----8---8---8----7-7-----8----8---8---8----7-7----------|
E|-------------------5-5-----------------------5-5----------|


e|----------------------------------------------------------|
B|----------------------------------------------------------|
G|----------------------------------------------------------|
D|-10---10--10--10---2-2-----10---10--10--10---2-2----------|
A|-10---10--10--10---2-2-----10---10--10--10---2-2----------|
E|-8----8---8---8----0-0-----8----8---8---8----0-0----------|


e|----------------------------------------------------------|
B|----------------------------------------------------------|
G|-10---10--10--10-----------10---10--10--10----------------|
D|-10---10--10--10---7-7-----10---10--10--10---7-7----------|
A|-8----8---8---8----7-7-----8----8---8---8----7-7----------|
E|-------------------5-5-----------------------5-5----------|


e|----------------------------------------------------------|
B|----------------------------------------------------------|
G|----------------------------------------------------------|
D|-10---10--10--10---2-2-----10-xxxx--xxxx--xxx-xx----------|
A|-10---10--10--10---2-2-----10-xxxx--xxxx--xxx-xx----------|
E|-8----8---8---8----0-0------8-xxxx--xxxx--xxx-xx----------|

(chorus riff) dist
e|----------------------------------------------------------|
B|----------------------------------------------------------|
G|----------------------------------------------------------|
D|--5--5-5---7--7-7---10-10-10-101010-1010101010-10-10------|
A|--5--5-5---7--7-7---10-10-10-101010-1010101010-10-10------|
E|--3--3-3---5--5-5---8--8--8--8-8-8--8-8-8-8-8--8--8-------|


e|----------------------------------------------------------|
B|----------------------------------------------------------|
G|----------------------------------------------------------|
D|--5--5-5---7--7-7-7-7----2--2-2---3--3-3-3-3--------------|
A|--5--5-5---7--7-7-7-7----2--2-2---3--3-3-3-3--------------|
e|--3--3-3---5--5-5-5-5----0--0-0---1--1-1-1-1--------------|


e|----------------------------------------------------------|
B|----------------------------------------------------------|
G|----------------------------------------------------------|
D|--5--5-5---7--7-7---10-10-10-101010-1010101010-10-10------|
A|--5--5-5---7--7-7---10-10-10-101010-1010101010-10-10------|
E|--3--3-3---5--5-5---8--8--8--8-8-8--8-8-8-8-8--8--8-------|


e|----------------------------------------------------------|
B|----------------------------------------------------------|
G|----------------------------------------------------------|
D|--5--5-5---7--7-7-7-7----2--2-2---3--3-3-3-3---2---3~-----|
A|--5--5-5---7--7-7-7-7----2--2-2---3--3-3-3-3---2---3~~----|
e|--3--3-3---5--5-5-5-5----0--0-0---1--1-1-1-1---0---1~~~---|

(verse riff) clean
e|----------------------------------------------------------|
B|----------------------------------------------------------|
G|----------------------------------------------------------|
D|----10---10---10-------2---------10---10---10-------2-----|
A|--10---10---10---10---2--------10---10---10---10---2------|
E|-8----8----8----8----0--------8----8----8----8----0-------|


e|----------------------------------------------------------|
B|----------------------------------------------------------|
G|----------------------------------------------------------|
D|----10---10---10-------2---------10---10---10-------2-----|
A|--10---10---10---10---2--------10---10---10---10---2------|
E|-8----8----8----8----0--------8----8----8----8----0-------|


e|----------------------------------------------------------|
B|----------------------------------------------------------|
G|----10---10---10-----------------10---10---10-------------|
D|--10---10---10---10----7-------10---10---10---10----7-----|
A|-8----8----8----8-----7-------8----8----8----8-----7------|
E|---------------------5----------------------------5-------|


e|----------------------------------------------------------|
B|----------------------------------------------------------|
G|----------------------------------------------------------|
D|----10---10---10-------2------10-xxxx-xxxx-xxx-xx---------|
A|--10---10---10---10---2-------10-xxxx-xxxx-xxx-xx---------|
E|-8----8----8----8----0--------8--xxxx-xxxx-xxx-xx---------|

(singing starts)
e|----------------------------------------------------------|
B|----------------------------------------------------------|
G|----------------------------------------------------------|
D|-10---10--10--10---2-2-----10---10--10--10---2-2----------|
A|-10---10--10--10---2-2-----10---10--10--10---2-2----------|
E|-8----8---8---8----0-0-----8----8---8---8----0-0----------|


e|----------------------------------------------------------|
B|----------------------------------------------------------|
G|----------------------------------------------------------|
D|-10---10--10--10---2-2-----10---10--10--10---2-2----------|
A|-10---10--10--10---2-2-----10---10--10--10---2-2----------|
E|-8----8---8---8----0-0-----8----8---8---8----0-0----------|


e|----------------------------------------------------------|
B|----------------------------------------------------------|
G|-10---10--10--10-----------10---10--10--10----------------|
D|-10---10--10--10---7-7-----10---10--10--10---7-7----------|
A|-8----8---8---8----7-7-----8----8---8---8----7-7----------|
E|-------------------5-5-----------------------5-5----------|


e|----------------------------------------------------------|
B|----------------------------------------------------------|
G|----------------------------------------------------------|
D|-10---10--10--10---2-2-----10---10--10--10---2-2----------|
A|-10---10--10--10---2-2-----10---10--10--10---2-2----------|
E|-8----8---8---8----0-0-----8----8---8---8----0-0----------|


e|----------------------------------------------------------|
B|----------------------------------------------------------|
G|-10---10--10--10-----------10---10--10--10----------------|
D|-10---10--10--10---7-7-----10---10--10--10---7-7----------|
A|-8----8---8---8----7-7-----8----8---8---8----7-7----------|
E|-------------------5-5-----------------------5-5----------|


e|----------------------------------------------------------|
B|----------------------------------------------------------|
G|----------------------------------------------------------|
D|-10---10--10--10---2-2-----10-xxxx--xxxx--xxx-xx----------|
A|-10---10--10--10---2-2-----10-xxxx--xxxx--xxx-xx----------|
E|-8----8---8---8----0-0------8-xxxx--xxxx--xxx-xx----------|

(verse) riff 2/dist
e|----------------------------------------------------------|
B|----------------------------------------------------------|
G|----------------------------------------------------------|
D|-10---10--10--10---2-2-----10---10--10--10---2-2----------|
A|-10---10--10--10---2-2-----10---10--10--10---2-2----------|
E|-8----8---8---8----0-0-----8----8---8---8----0-0----------|


e|----------------------------------------------------------|
B|----------------------------------------------------------|
G|----------------------------------------------------------|
D|-10---10--10--10---2-2-----10---10--10--10---2-2----------|
A|-10---10--10--10---2-2-----10---10--10--10---2-2----------|
E|-8----8---8---8----0-0-----8----8---8---8----0-0----------|


e|----------------------------------------------------------|
B|----------------------------------------------------------|
G|-10---10--10--10-----------10---10--10--10----------------|
D|-10---10--10--10---7-7-----10---10--10--10---7-7----------|
A|-8----8---8---8----7-7-----8----8---8---8----7-7----------|
E|-------------------5-5-----------------------5-5----------|


e|----------------------------------------------------------|
B|----------------------------------------------------------|
G|----------------------------------------------------------|
D|-10---10--10--10---2-2-----10---10--10--10---2-2----------|
A|-10---10--10--10---2-2-----10---10--10--10---2-2----------|
E|-8----8---8---8----0-0-----8----8---8---8----0-0----------|


e|----------------------------------------------------------|
B|----------------------------------------------------------|
G|-10---10--10--10-----------10---10--10--10----------------|
D|-10---10--10--10---7-7-----10---10--10--10---7-7----------|
A|-8----8---8---8----7-7-----8----8---8---8----7-7----------|
E|-------------------5-5-----------------------5-5----------|


e|----------------------------------------------------------|
B|----------------------------------------------------------|
G|----------------------------------------------------------|
D|-10---10--10--10---2-2-----10-xxxx--xxxx--xxx-xx----------|
A|-10---10--10--10---2-2-----10-xxxx--xxxx--xxx-xx----------|
E|-8----8---8---8----0-0------8-xxxx--xxxx--xxx-xx----------|


(chorus riff) dist
e|----------------------------------------------------------|
B|----------------------------------------------------------|
G|----------------------------------------------------------|
D|--5--5-5---7--7-7---10-10-10-101010-1010101010-10-10------|
A|--5--5-5---7--7-7---10-10-10-101010-1010101010-10-10------|
E|--3--3-3---5--5-5---8--8--8--8-8-8--8-8-8-8-8--8--8-------|


e|----------------------------------------------------------|
B|----------------------------------------------------------|
G|----------------------------------------------------------|
D|--5--5-5---7--7-7-7-7----2--2-2---3--3-3-3-3--------------|
A|--5--5-5---7--7-7-7-7----2--2-2---3--3-3-3-3--------------|
e|--3--3-3---5--5-5-5-5----0--0-0---1--1-1-1-1--------------|


e|----------------------------------------------------------|
B|----------------------------------------------------------|
G|----------------------------------------------------------|
D|--5--5-5---7--7-7---10-10-10-101010-1010101010-10-10------|
A|--5--5-5---7--7-7---10-10-10-101010-1010101010-10-10------|
E|--3--3-3---5--5-5---8--8--8--8-8-8--8-8-8-8-8--8--8-------|


e|----------------------------------------------------------|
B|----------------------------------------------------------|
G|----------------------------------------------------------|
D|--5--5-5---7--7-7-7-7----2--2-2---3--3-3-3-3---2---3~-----|
A|--5--5-5---7--7-7-7-7----2--2-2---3--3-3-3-3---2---3~~----|
e|--3--3-3---5--5-5-5-5----0--0-0---1--1-1-1-1---0---1~~~---|

(bridge) riff/pm...
e|----------------------------------------------------------|
B|----------------------------------------------------------|
G|----------------------------------------------------------|
D|-3-3-3-3-3-3-3-3-3-3-3-3-3-3-3----------------------------|
A|-3-3-3-3-3-3-3-3-3-3-3-3-3-3-3----------------------------|
E|-1-1-1-1-1-1-1-1-1-1-1-1-1-1-1----------------------------|

(bridge) riff 2 
e|----------------------------------------------------------|
B|----------------------------------------------------------|
G|----------------------------------------------------------|
D|--7------5------6--4--2----7------5------6--4--2----------|
A|--7------5------6--4--2----7------5------6--4--2----------|
E|--5------3------4--2--0----5------3------4--2--0----------|


e|----------------------------------------------------------|
B|----------------------------------------------------------|
G|----------------------------------------------------------|
D|--7------5------6--4--2----7------5-xxxx-x-x--------------|
A|--7------5------6--4--2----7------5-xxxx-x-x--------------|
E|--5------3------4--2--0----5------3-xxxx-x-x--------------|

e|----------------------------------------------------------|
B|----------------------------------------------------------|
G|----------------------------------------------------------|
D|--7------5------6--4--2----7------5------6--4--2----------|
A|--7------5------6--4--2----7------5------6--4--2----------|
E|--5------3------4--2--0----5------3------4--2--0----------|


e|----------------------------------------------------------|
B|----------------------------------------------------------|
G|----------------------------------------------------------|
D|--7------5------6--4--2----7------5-xxxx-x-x--------------|
A|--7------5------6--4--2----7------5-xxxx-x-x--------------|
E|--5------3------4--2--0----5------3-xxxx-x-x--------------|

(chorus) riff
e|----------------------------------------------------------|
B|----------------------------------------------------------|
G|----------------------------------------------------------|
D|--5--5-5---7--7-7---10-10-10-101010-1010101010-10-10------|
A|--5--5-5---7--7-7---10-10-10-101010-1010101010-10-10------|
E|--3--3-3---5--5-5---8--8--8--8-8-8--8-8-8-8-8--8--8-------|


e|----------------------------------------------------------|
B|----------------------------------------------------------|
G|----------------------------------------------------------|
D|--5--5-5---7--7-7-7-7----2--2-2---3--3-3-3-3--------------|
A|--5--5-5---7--7-7-7-7----2--2-2---3--3-3-3-3--------------|
e|--3--3-3---5--5-5-5-5----0--0-0---1--1-1-1-1--------------|


e|----------------------------------------------------------|
B|----------------------------------------------------------|
G|----------------------------------------------------------|
D|--5--5-5---7--7-7---10-10-10-101010-1010101010-10-10------|
A|--5--5-5---7--7-7---10-10-10-101010-1010101010-10-10------|
E|--3--3-3---5--5-5---8--8--8--8-8-8--8-8-8-8-8--8--8-------|


e|----------------------------------------------------------|
B|----------------------------------------------------------|
G|----------------------------------------------------------|
D|--5--5-5---7--7-7-7-7----2--2-2---3--3-3-3-3--------------|
A|--5--5-5---7--7-7-7-7----2--2-2---3--3-3-3-3--------------|
e|--3--3-3---5--5-5-5-5----0--0-0---1--1-1-1-1--------------|


e|----------------------------------------------------------|
B|----------------------------------------------------------|
G|----------------------------------------------------------|
D|--5--5-5---7--7-7---10-10-10-101010-1010101010-10-10------|
A|--5--5-5---7--7-7---10-10-10-101010-1010101010-10-10------|
E|--3--3-3---5--5-5---8--8--8--8-8-8--8-8-8-8-8--8--8-------|


e|----------------------------------------------------------|
B|----------------------------------------------------------|
G|----------------------------------------------------------|
D|--5--5-5---7--7-7-7-7----2--2-2---3--3-3-3-3--------------|
A|--5--5-5---7--7-7-7-7----2--2-2---3--3-3-3-3--------------|
e|--3--3-3---5--5-5-5-5----0--0-0---1--1-1-1-1--------------|


e|----------------------------------------------------------|
B|----------------------------------------------------------|
G|----------------------------------------------------------|
D|--5--5-5---7--7-7---10-10-10-101010-1010101010-10-10------|
A|--5--5-5---7--7-7---10-10-10-101010-1010101010-10-10------|
E|--3--3-3---5--5-5---8--8--8--8-8-8--8-8-8-8-8--8--8-------|


e|----------------------------------------------------------|
B|----------------------------------------------------------|
G|----------------------------------------------------------|
D|--5--5-5---7--7-7-7-7----2--2-2---3--3-3-3-3--------------|
A|--5--5-5---7--7-7-7-7----2--2-2---3--3-3-3-3--------------|
e|--3--3-3---5--5-5-5-5----0--0-0---1--1-1-1-1--------------|

(end) clean
e|----------------------------------------------------------|
B|--5------3------4--2--0----5------3------4--2--0----------|
G|----------------------------------------------------------|
D|----------------------------------------------------------|
A|----------------------------------------------------------|
E|----------------------------------------------------------|

Tap to rate this tab
# A B C D E F G H I J K L M N O P Q R S T U V W X Y Z