Song name
# A B C D E F G H I J K L M N O P Q R S T U V W X Y Z

Misc Unsigned Bands - Scarlet Blue - Sands Of Time tab

This is an awesome song from an awesome band I'll always be a life long fan!
So learn it!



e-|------------------------------------------------------------------------|
B-|------------------------------------------------------------------------|
G-|-2-2-2---7-6--4--4-4--7-6*----------------------------------------------|
D-|-2-2-2---7-7--5--5-5--7-------------------------------------------------|
A-|-0-0-0------------------------------------------------------------------|
E-|------------------------------------------------------------------------|
      . .


e-|------------------------------------------------------------------------|
B-|------------------------------------------------------------------------|
G-|-2-2-2---7-6--4--5/7-----------2----------------------------------------|
D-|-2-2-2---7-7--5------5-7-4-5---2----------------------------------------|
A-|-0-0-0-------------------------0----------------------------------------|
E-|------------------------------------------------------------------------|
Tap to rate this tab
# A B C D E F G H I J K L M N O P Q R S T U V W X Y Z