Song name
# A B C D E F G H I J K L M N O P Q R S T U V W X Y Z

Misc Unsigned Bands - Zelda - Ganons Theme tab

         Ganon's Theme (Zelda)
Tabbed by The-ownageness
Email the-ownageness@hotmail.com



Tuning Standard ( E A D G B E)


        REAPEAT TWICE
|------------------------------------|
|o----------------------------------o|
|------------------------------------|
|---5----4--6----5--7---6--8---------|
|o--5----4--6----5--7---6--8--------o|
|---5----4--6----5--7---6--8---------|


|--------------------------------------------------|
|--------------------------------------------------|
|--------------------------------------------------|
|--10---9----12---11-----13---12----15---14-----17-|
|--10---9----12---11-----13---12----15---14-----17-|
|--10---9----12---11-----13---12----15---14-----17-|

Listen to the actual theme to get the tempo ( Last boss of Zelda Orcarina of time).

Hope u like it Cheers.
Tap to rate this tab
# A B C D E F G H I J K L M N O P Q R S T U V W X Y Z