Song name
# A B C D E F G H I J K L M N O P Q R S T U V W X Y Z

Misc Unsigned Bands - Gridlock - Escape Your Chains tab

Set your amp on heay distortion for this. Neck tone at 3, bridge tone at 7.
Blusey feel
intro(clean)
--------------------------------------------------|
--------------------------------------------------|
--------------------------------------------------|
-2-2-3---2-3--2-2-3--2-3--------------------------|(x2)
-2-2-3---2-3--2-2-3--2-3--------------------------|
-2-2-3---2-3--2-2-3--2-3--------------------------|


verse(palm mute/distortion)
--------------------------------------------------|
--------------------------------------------------|
--------------------------------------------------|
--------------------------------------------------|(x4)
--------------------------------------------------|
-12-12-12-12-15-15-15-15-17-17-17-17-11-11-11-11--|

chorus
--------------------------------------------------|
--------------------------------------------------|
--------------------------------------------------|(x2)
--------------------------------------------------|slide when changing frets
-12--12--15--15--17--17--11--11-------------------|
-12--12--15--15--17--17--11--11-------------------|

verse and chorus repeat then solo

solo
--------------------------------------------------------------------|
--------------------------------------------------------------------|
--------------------------------------------------------------------|
--------------------------------------------------------------------|(x4)
--------------17-12--10----------------17-15------------------------|
-12--15h16h17-----------12-10-12--7/12-------17--12-10-12-----------|
Tap to rate this tab
# A B C D E F G H I J K L M N O P Q R S T U V W X Y Z