Song name
# A B C D E F G H I J K L M N O P Q R S T U V W X Y Z

Misc Unsigned Bands - Liz Ball - I Wish You Could See What I See tab

Tuning: Standard

e|---------------------------------------------------------------------------|
B|---8---8---8---8---5---5---5---5---12---12---12---12---7---7---7---7-------|
G|---------------------------------------------------------------------------|
D|---------------------------------------------------------------------------|
A|-7---7---7---7---3---3---3---3---10---10---10---10---5---5---5---5---------|
E|---------------------------------------------------------------------------|

This is played for most of the song and before each chorus you have

e|----------------------------------------------------------------------------|
B|---5---5---5---5------------------------------------------------------------|
G|----------------------------------------------------------------------------|
D|----------------------------------------------------------------------------|
A|----------------------------------------------------------------------------|
E|-3---3---3---3---3----------------------------------------------------------|

Then the bridge and last chorus use

Em C G D


   ---


Close your eyes, go to sleep
Come and lay right next to me
I could hold you forever
How can you not see what I see?

You make me smile and you don't even know
I can't even remember a year ago
You light up the coldest, darkest room
And every day I'll tell you so

Don't bring yourself down
Don't let it take you over
I need you around
I need you, I need you, oh

Right from the start I knew
I wanted to get close to you
I've never known a heart as big as yours
Or anyone as kind as you

I think about you every day
Just wondering if you're ok
I want to do for you what you have done for me
And make you happy in some way

Don't bring yourself down
Don't let it take you over
I need you around
I need you, I need you, oh

Just let go, just let go
Forget these things you think you know
Let go, let go
I wanna see you smile

Don't bring yourself down
Don't let it take you over
I need you around
I need you, I need you, I need you, I need you, I need you.
Tap to rate this tab
# A B C D E F G H I J K L M N O P Q R S T U V W X Y Z