Guitaretab - guitar tabs
Song name
# A B C D E F G H I J K L M N O P Q R S T U V W X Y Z

Misc Unsigned Bands - Ten Legged Freaks - I Dont Love You tab

Part 1

e|----------------------------------------------------------------|
B|----------------------------------------------------------------|
G|----------------------------------------------------------------|    (repeat untill chorus)
D|6-6-6-6-6-6-6-6-------------------------------------------------|
A|4-4-4-4-4-4-4-4-7-7-7-7-7-7-7-7-4-4-4-4-4-4-4-4-6-6-6-6-6-6-6-6-|
E|----------------5-5-5-5-5-5-5-5-2-2-2-2-2-2-2-2-4-4-4-4-4-4-4-4-|

Part 2
[ Tab from: http://www.guitaretab.com/m/misc-unsigned-bands/111951.html ]
e|----------------------------------------------|
B|----------------------------------------------|
G|--13---11---13---11---9---9---6---6---8---6---|    (repeat untill chorus)
D|----------------------------------------------|
A|----------------------------------------------|
E|----------------------------------------------|


(Chorus)

Part 1

e|-------------------------------------|
B|-------------------------------------|
G|-------------------------------------|    
D|-6-6----6-4-4----4-2-2----2-4-4--4-5-|           (X2) 
A|-4-4----4-2-2----2-0-0----0-2-2--2-3-|
E|-------------------------------------|

Part 2

e|-----------------|
B|-9-9-9-9-7-7-7-7-|
G|--9-9-9-9-9-9-9-9|              (X4)
D|-----------------|         
A|-----------------|
E|-----------------|


-----------------------------REPEAT FULL SONG ------------------------------------------



                        (Solo not submitted yet)

Related for Ten Legged Freaks - I Dont Love You tab
×
Ten Legged Freaks - I Dont Love You