Song name
# A B C D E F G H I J K L M N O P Q R S T U V W X Y Z

Misc Unsigned Bands - Hypothetically Speaking - Afraid tab

Help us improve GuitareTab! Take a short survey!
Gtr I (E A D G B E) 

 6/8 Timing
Gtr I

Intro and Verse
|-2-2-2-2-2-2-2-2---------------------------------------------------|
|-3-3-3-3-3-3-3-3-7-7-7-7-7-7-7-7-2-2-2-2-2-2-2-2-3-3-3-3-3-3-3-3---|
|-4-4-4-4-4-4-4-4-7-7-7-7-7-7-7-7-2-2-2-2-2-2-2-2-2-2-2-2-2-2-2-2---|
|-------------------------------------------------------------------|
|-------------------------------------------------------------------|
|-3-3-3-3-3-3-3-3-7-7-7-7-7-7-7-7-2-2-2-2-2-2-2-2-3-3-3-3-3-3-3-3---|


Chorus
|-------------------------------------------------------------------|
|-----------------7-7-7-7-7-7-7-7-2-2-2-2-2-2-2-2-3-3-3-3-3-3-3-3---|
|-4-4-4-4-4-4-4-4-7-7-7-7-7-7-7-7-2-2-2-2-2-2-2-2-2-2-2-2-2-2-2-2---|
|-------------------------------------------------------------------|
|-------------------------------------------------------------------|
|-3-3-3-3-3-3-3-3-7-7-7-7-7-7-7-7-2-2-2-2-2-2-2-2-3-3-3-3-3-3-3-3---|


Break Section (Switches to 4/4 Timing)
|------------------------------------------------------------------------------------------------|
|------------------------------------------------------------------------------------------------|
|-------------------------------------------------11-11-11-11-11-11-11-11--9--9--9--9--9--9--9--9|
|-11-11-11-11-11-11-11-11-14-14-14-14-14-14-14-14-12-12-12-12-12-12-12-12-11-11-11-11-11-11-11-11|
|--9--9--9--9--9--9--9--9-12-12-12-12-12-12-12-12--9--9--9--9--9--9--9--9--7--7--7--7--7--7--7--7|
|--7--7--7--7--7--7--7--7-10-10-10-10-10-10-10-10------------------------------------------------|


Related for Hypothetically Speaking - Afraid tab