Song name
# A B C D E F G H I J K L M N O P Q R S T U V W X Y Z

Misc Unsigned Bands - The Moving Stills - Not Finished tab

Tabbed by Mr.Don'tShootMe

Guitar 1
|--------------------------------------------------|
|--------------------------------------------------|
|-------9911111177---------------------------------|
|-4--4--------------5/7777777--9999999-------------|
|-4--4--779-9-9-55--5/7777777----------------------|
|-4--4--------------5/7777777--7777777-------------|

Guitar 2
|--------------------------------------------------|
|--------------------------------------------------|
|--------------------------------------------------|
|-4--4--0000000----5/7777777--2222222--------------|
|-4--4--0000000----5/7777777--2222222--------------|
|-4--4--0000000----5/7777777--2222222--------------|
Tap to rate this tab
# A B C D E F G H I J K L M N O P Q R S T U V W X Y Z