Song name
# A B C D E F G H I J K L M N O P Q R S T U V W X Y Z

Misc Unsigned Bands - Datura - Sell Your Soul tab

Sell Your Soul by Datura
Rythem Guitar(Dimitri Fortune)
Drop D tuning
Intro:
-------------------------------------------|
-------------------------------------------|
-2P-2P-2P-5~-2P-2P-2P-4~-------------------|
-2P-2P-2P-5~-2P-2P-2P-4~-------------------|
-0P-0P-0P-3~-0P-0P-0P-2~-------------------|
-------------------------------------------|

------------------------------------------|
------------------------------------------|
-2P-2P-2P-------2P-2P-2P------------------|
-2P-2P-2P----0--2P-2P-2P------------------|
-0P-0P-0P-2h3---0P-0P-0P-5p3p0------------|
----------------0P-0P-0P------------------|
Play Intro twice then play

------------------------------------------|
------------------------------------------|
-----X\-----------------------------------|
-0~----X\---------------------------------|
-0~------X\---------3h5p3p2p0h2~~---------|
-0~---------X\\\\---0~~~~~~~~~~~~---------|
Verse:(lightly play)
-----------------------------------------|
-----------------------------------------|
-----------------------------------------|
----7----5----8----7----5h7--------------|
-----------------------------------------|
-0-0--0-0--0-0--0-0--0-0-----------------|

-----------------------------------------|
-----------------------------------------|
-----------------------------------------|
----7----5----8----7----7h8--------------|
-----------------------------------------|
-0-0--0-0--0-0--0-0--0-0-----------------|

-----------------------------------------|
-----------------------------------------|
-----------------------------------------|
----7----5----8----7----5h7--------------|
-----------------------------------------|
-0-0--0-0--0-0--0-0--0-0-----------------|

-----------------------------------------|
-----------------------------------------|
-----------------------------------------|
-7-7-7-5-5-5-3-3-5-5-5-3-3-3-2/3---------|
-----------------------------------------|
-0-0-0-0-0-0-0-0-0-0-0-0-0-0-0~~---------|

-----------------------------------------|
-----------------------------------------|
-----------------------------------------|
----7----5----8----7----5h7--------------|
-----------------------------------------|
-0-0--0-0--0-0--0-0--0-0-----------------|

-----------------------------------------|
-----------------------------------------|
-----------------------------------------|
----7----5----8----7----7h8--------------|
-----------------------------------------|
-0-0--0-0--0-0--0-0--0-0-----------------|

-----------------------------------------|
-----------------------------------------|
-----------------------------------------|
----8----7----10---8----7h8--------------|
-----------------------------------------|
-0-0--0-0--0-0--0-0--0-0-----------------|

-----------------------------------------|
-----------------------------------------|
-----------------------------------------|
-8-8-8-7-7-7-5-5-7-7-7-5-5-5-3/5---------|
-----------------0-0-0-0-0-0-0~~---------|
-----------------0-0-0-0-0-0-0~~---------|

-----------------------------------------|
-----------------------------------------|
-----------------------------------------|
-----7-----5-----5-----7-----5h7---------|
-0-0-5-0-0-5-0-0-8-0-0-5-0-0-5-----------|
-0-0---0-0---0-0---0-0---0-0-------------|

-----------------------------------------|
-----------------------------------------|
-----------------------------------------|
-----7-----5-----8-----7-----7h8---------|
-0-0-5-0-0-5-0-0-5-0-0-5-0-0-5-----------|
-0-0---0-0---0-0---0-0---0-0-------------|

-----------------------------------------|
-----------------------------------------|
-----------------------------------------|
-----8-----7-----10----8-----7h8---------|
-0-0-5-0-0-5-0-0-5-0-0-5-0-0-5-----------|
-0-0---0-0---0-0---0-0---0-0-------------|

-----------------------------------------|
-----------------------------------------|
-8-8-8-7-7-7-5-5-7-7-7-5-5-5-3/5---------|
-5-5-5-5-5-5-5-5-5-5-5-5-5-5-3/5---------|
-0-0-0-0-0-0-0-0-0-0-0-0-0-0-0-----------|
-0-0-0-0-0-0-0-0-0-0-0-0-0-0-0-----------|
Chorus:
------------------------------------------|
------------------------------------------|
------------------------------------------|
-0----0----------0-------0----0-----------|
-0-0P-0-0P-0P-0P-0-0P-0P-0-0P-0-0P-0P-0P--|
-0-0P-0-0P-0P-0P-0-0P-0P-0-0P-0-0P-0P-0P--|

------------------------------------------|
------------------------------------------|
-7/8--------------------------------------|
-7/8-0----0----------0--------------------|
-5/8-0-0P-0-0P-0P-0P-0-0P-0P--------------|
-0---0-0P-0-0P-0P-0P-0-0P-0P--------------|

------------------------------------------|
------------------------------------------|
------------------------------------------|
-9-9-9-10-10-10-9-9-9--5-5-5-x-7-5=-5p0---|
-7-7-7-7--7--7--7-7-7--5-5-5-x-5-5=-5p0---|
------------------------------------------|
Play Chorus Twice then Play

------------------------------------------|
------------------------------------------|
------------------------------------------|
------------------------------------------|
------7=-----5=------7=-----5=------------|
-0P-0P--0P-0P---0P-0P--0P-0P--------------|

------------------------------------------------|
------------------------------------------------|
------------------------------------------------|
------------------------------------------------|
-------2-----3~2h3p2p0-------2------3~2h3p2p0---|
-0P-0P--0P-0P----------0P-0P---0P-0P------------|

-----------------------------------------------|
-----------------------------------------------|
-------------------------------/---------------|
------------------------------/----------------|
-0=-2~-3h5p3p2p0h2-----------/-----------------|
-0=-2~-0-------------------X/------------------|
Verse
Chorus X2
Play The chorus riff throughout lead after-chorus
Then Play Bridge:
-----------------------------------------------|
-----------------------------------------------|
-7~-7=-----9~-9=-----9/12----------------------|
-7~-7=-x-x-9~-9=-x-x-9/12----------------------|
-5~-5=-x-x-7~-7=-x-x-7/10----------------------|
-----------------------------------------------|

-----------------------------------------------|
-----------------------------------------------|
-----------------------------------------------|
-7~-7=-----9~-9=-x-x-9\7\5---------------------|
-7~-7=-x-x-9~-9=-x-x-9\7\5---------------------|
-7~-7=-x-x-9~-9=-x-x-9\7\5---------------------|
Play brige twice then play Pre-solo:
-----------------------------------------------|
-----------------------------------------------|
-----------------------------------------------|
-----------------------------------------------|
-0~~----------0=-------0=----------------------|
-0~~-0P-0P-0P-0=-0P-0P-0=-0P-0P-------X3-------|

-----------------------------------------------|
-----------------------------------------------|
-----------------------------------------------|
-----------------------------------------------|
----------------0-0----------------------------|
-0~-3-3-3-5-5-5-----5-5-5-3-3-3-0-0------------|

-----------------------------------------------|
-----------------------------------------------|
-----------------------------------------------|
-----------------------------------------------|
-0~~----------0=-------0=----------------------|
-0~~-0P-0P-0P-0=-0P-0P-0=-0P-0P--------X3------|
Lead Solo[Guitar 2 play Chorus riff throughout solo]

After Solo play chorus X2

Bass Fill
Bass:
------------------------------------------------|
------------------------------------------------|
------------------------------------------------|
-0-0-12-0-0-10-0-0-13-0-0-12-0-0-10h12----------|

------------------------------------------------|
------------------------------------------------|
------------------------------------------------|
-0-0-12-0-0-10-0-0-13-0-0-12-0-0-12h13----------|

------------------------------------------------|
------------------------------------------------|
------------------------------------------------|
-0-0-12-0-0-10-0-0-13-0-0-12-0-0-10h12----------|

|-----------------------------------------------|
|-----------------------------------------------|
|-----------------------------------------------|
|-12-12-12-10-10-10-8-8-10-10-10-8-8-8-7/8------|
| Rythem:
|-----------------------------------------------|
|-----------------------------------------------|
|-----------------------------------------------|
|-7-7-7-5-5-5-3-3-5-5-5-3-3-3-2/3---------------|
|-----------------------------------------------|
|-0-0-0-0-0-0-0-0-0-0-0-0-0-0-0-----------------|
| Lead:
|-----------------------------------------------|
|-----------------------------------------------|
|-----------------------------------------------|
|-7-7-7-5-5-5-3-3-5-5-5-3-3-3-2/3---------------|
|-5-5-5-5-5-5-3-3-3-3-3-3-3-3-2/3---------------|
|-0-0-0-0-0-0-0-0-0-0-0-0-0-0-0~~---------------|

Bass:
------------------------------------------------|
------------------------------------------------|
------------------------------------------------|
-0-0-12-0-0-10-0-0-13-0-0-12-0-0-10h12----------|

------------------------------------------------|
------------------------------------------------|
------------------------------------------------|
-0-0-12-0-0-10-0-0-13-0-0-12-0-0-12h13----------|

------------------------------------------------|
------------------------------------------------|
------------------------------------------------|
-0-0-13-0-0-12-0-0-15-0-0-13-0-0-12h13----------|

|-------------------------------------------------|
|-------------------------------------------------|
|-------------------------------------------------|
|-13-13-13-12-12-12-10-10-12-12-12-10-10-10-9h10--|
| Rythem:
|-----------------------------------------------|
|-----------------------------------------------|
|-----------------------------------------------|
|-8-8-8-7-7-7-5-5-7-7-7-5-5-5-3/5---------------|
|-----------------0-0-0-0-0-0-0-----------------|
|-----------------0-0-0-0-0-0-0-----------------|
| Lead:
|-----------------------------------------------|
|-----------------------------------------------|
|-----------------------------------------------|
|-----------------7-7-7-5-5-5-3/5---------------|
|-8-8-8-7-7-7-5-5-5-5-5-5-5-5-3/5---------------|
|-0-0-0-0-0-0-0-0-0-0-0-0-0-0-0-----------------|

Bass:

|------------------------------------------------|
|------------------------------------------------|
|------------------------------------------------|
|-0-0-12-0-0-10-0-0-13-0-0-12-0-0-12h13----------|
| Rythem:
|------------------------------------------------|
|------------------------------------------------|
|------------------------------------------------|
|-----7------5------8------7------5h7------------|
|-----5------5------5------5------5--------------|
|------------------------------------------------|
 Bass:
|------------------------------------------------|
|------------------------------------------------|
|------------------------------------------------|
|-0-0-12-0-0-10-0-0-13-0-0-12-0-0-12h13----------|
| Rythem:
|------------------------------------------------|
|------------------------------------------------|
|------------------------------------------------|
|-----7-------5-----8------7------7h8------------|
|-----5-------5-----5------5------5--------------|
|------------------------------------------------|
 Bass:
|------------------------------------------------|
|------------------------------------------------|
|------------------------------------------------|
|-0-0-13-0-0-12-0-0-15-0-0-13-0-0-12h13----------|
| Rythem:
|-------------------------------------------------|
|-------------------------------------------------|
|-------------------------------------------------|
|-----8-------7-----10----8-------7h8-------------|
|-----5-------5-----5-----5-------5---------------|
|-------------------------------------------------|
 Bass:
|-------------------------------------------------|
|-------------------------------------------------|
|-------------------------------------------------|
|-13-13-13-12-12-12-10-10-12-12-12-10-10-10-8h10--|
| Rythem:
|-------------------------------------------------|
|-------------------------------------------------|
|-8-8-8-7-7-7-5-5-7-7-7-5-5-5-3/5-----------------|
|-5-5-5-5-5-5-5-5-5-5-5-5-5-5-3/5-----------------|
|-0-0-0-0-0-0-0-0-0-0-0-0-0-0-0-------------------|
|-0-0-0-0-0-0-0-0-0-0-0-0-0-0-0-------------------|
| Lead
|-------------------------------------------------|
|-------------------------------------------------|
|-------------------------------------------------|
|-8-8-8-7-7-7-5-5-7-7-7-5-5-5-3/5-----------------|
|-5-5-5-5-5-5-5-5-5-5-5-5-5-5-3/5-----------------|
|-0-0-0-0-0-0-0-0-0-0-0-0-0-0-0-------------------|

Verse
Chorus X2
Guitar 2 out for Guitar 1 After-chorus
Guitar 2 joins back in with Intro(outro)

Legend:
X\:Pick Slide Down
X/:Pick Slide up
h:Hammeron
p:Pulloff
\:Slide Down
/:Slide Up
P: Palm Mute
*: Harmonic
~: Let Ring
=: Short Note
+: Crybaby Petal
Tap to rate this tab
# A B C D E F G H I J K L M N O P Q R S T U V W X Y Z