Guitaretab - guitar tabs
Song name
# A B C D E F G H I J K L M N O P Q R S T U V W X Y Z

Misc Unsigned Bands - Kazami - You tab

-----------------------------------------------------------------------
You/Himawari - Kazami
-----------------------------------------------------------------------

Tabbed by: Jimmy Huynh
Email: blinkboy777@yahoo.com

Tuning: Standard (Capo Fret 1)

I tabbed this from http://www.youtube.com/watch?v=86dW8lMo6-M
Iím sure I got most of it right but probably not 100% accurate because 
the person in the vid plays with steel strings; I play with nylon.
So I couldn't really get the sound right.  Anyways, enjoy

e|----------------------------------------------------------|
B|----------5----------4---------0h1----------3-------------|
G|--------4----------3---------------------0h4--------------|
D|------5----------4----------2----------4------------------|
A|----3----------2----------3----------2--------------------|
E|----------------------------------------------------------|

e|----------------------3-----------------------------------|
B|----------5---------3---3--------3------------------------|
G|--------4---------4------------0----------2h4-------------|
D|------5---------2------------2----------0-----------------|
A|----3----------------------0------------------------------|
E|------------------------------------3---------------------|

e|----------------------------------------------------------|
B|----------5----------4---------0h1----------3-------------|
G|--------4----------3---------------------0h4--------------|
D|------5----------4----------2----------4------------------|
A|----3----------2----------3----------2--------------------|
E|----------------------------------------------------------|
[ Tab from: http://www.guitaretab.com/m/misc-unsigned-bands/112055.html ]
e|----------------------3-----------------------------------|
B|----------5---------3---3--------3--------3---------------|
G|--------4---------4------------0------------2p0-----------|
D|------5---------2------------2----------------------------|
A|----3----------------------3------------------------------|
E|------------------------------------3---------------------|

e|----------------------------------------------------------|
B|----------5----------4---------0h1----------3-------------|
G|--------4----------3---------------------0h4--------------|
D|------5----------4----------2----------4------------------|
A|----3----------2----------3----------2--------------------|
E|----------------------------------------------------------|

e|----------------------3-----------------------------------|
B|----------5---------3---3--------3----------0-------------|
G|--------4---------4------------0----------2---------------|
D|------5---------2------------2----------0-----------------|
A|----3----------------------3------------------------------|
E|------------------------------------3---------------------|

e|----------------------------------------------------------|
B|----------5----------4---------0h1----------4-------------|
G|--------4----------3---------------------0h3--------------|
D|------5----------4----------2----------4------------------|
A|----3----------2----------3----------2--------------------|
E|----------------------------------------------------------|

e|----------------------3--------------------------3--------|
B|----------5---------3---3--------3--------3---------------|
G|--------4---------4------------4------------2p0-----------|
D|------5---------2------------2----------------------------|
A|----3----------------------0------------------------------|
E|------------------------------------3---------------------|
Related for Kazami - You tab