Song name
# A B C D E F G H I J K L M N O P Q R S T U V W X Y Z

Misc Unsigned Bands - Autoplay Conspiracy - And Tonight tab

And Tonight...
1st guitar - rythm guitar/lead vocals (screams) *Peter
2nd guitar - lead guitar/vocals *Keith

1st guitar:
e|------------------------------------------------------|
B|------------------------------------------------------|
G|-14---------12---------10---------5--------7----------| 2x's
d|-x--(16x's)-x--(16x's)-x--(16x's)-x-(8x's)-x-(8x's)---|
A|-12---------10---------8----------3--------5----------|
D|------------------------------------------------------|

2nd guitar:
e|------------------------------------------|
B|------------------------------------------|
G|------------------------------------------| 2x's
d|-0---------3---------8---------7----------|
A|-0-(16x's)-3-(16x's)-8-(16x's)-7-(16x's)--|
D|-0---------3---------8---------7----------|

Chorus:
1st guitar:
e|-------6-4-3---|
B|---------------|
G|-5-8-5---------| 2x's
d|---------------|
A|---------------|
D|---------------|

e|-------6-4-3-4-3-2-3-4-6--|
B|--------------------------|
G|-5-8-5--------------------| 
d|--------------------------|
A|--------------------------|
D|--------------------------|

Repeat 2x's

2nd guitar:
e|---------------------------------------------------|
B|---------------------------------------------------|
G|---------------------------------------------------| 2x's
d|-10---------8---------5---------6--------8---------|
A|-10-(16x's)-8-(16x's)-5-(16x's)-6-(8x's)-8-(8x's)--|
D|-10---------8---------5---------6--------8---------|
end of chorus
ahaha dude

1st guitar:
e|---------------------------------------------|
B|---------------------------------------------|
G|---------------------------------------------| 2x's
d|-12---------10---------8---------10----------|
A|-12-(16x's)-10-(16x's)-8-(16x's)-10-(16x's)--|
D|-12---------10---------8---------10----------|

2nd guitar:
e|---------------------------------------------|
B|---------------------------------------------|
G|-14---------12---------10---------12---------| 2x's
d|-x--(16x's)-x--(16x's)-x--(16x's)-x-(16x's)--|
A|-12---------10---------8----------10---------|
D|---------------------------------------------|

Chorus:
1st guitar:
e|-------6-4-3---|
B|---------------|
G|-5-8-5---------| 2x's
d|---------------|
A|---------------|
D|---------------|

e|-------6-4-3-4-3-2-3-4-6--|
B|--------------------------|
G|-5-8-5--------------------| 
d|--------------------------|
A|--------------------------|
D|--------------------------|

Repeat 2x's

2nd guitar:
e|---------------------------------------------------|
B|---------------------------------------------------|
G|---------------------------------------------------| 2x's
d|-10---------8---------5---------6--------8---------|
A|-10-(16x's)-8-(16x's)-5-(16x's)-6-(8x's)-8-(8x's)--|
D|-10---------8---------5---------6--------8---------|
end of chorus
ahaha dude

1st guitar:
e|-------------------------------------------------------------------|
B|-------------------------------------------------------------------|
G|-------------------------------------------------------------------| 2x's
d|-8---------10---------000000000~-000000000~-000000000~-000000000~--|
A|-8-(16x's)-10-(16x's)-000000000~-000000000~-000000000~-000000000~--|
D|-8---------10---------000000000~-000000000~-000000000~-000000000~--|
                        .........  .........  .........  .........

2nd guitar:
e|--------------------------------------------------------------------|
B|--------------------------------------------------------------------|
G|-12---------10------------------------------------------------------| 2x's
d|-x--(16x's)-x--(16x's)-000000000~-000000000~-000000000~-000000000~--|
A|-10---------8----------000000000~-000000000~-000000000~-000000000~--|
D|-----------------------000000000~-000000000~-000000000~-000000000~--|
                         .........  .........  .........  .........

2nd guitar:
e|------|
B|------|
G|------|
d|--0~--|
A|--0~--|
D|--0~--|

Both guitars:
e|--------------------------|
B|--------------------------|
G|--------------------------| 
d|-00000-00000-00000-00000--|
A|-00000-00000-00000-00000--|
D|-00000-00000-00000-00000--|
   ..... ..... ..... .....

1st guitar:
e|-------------------------------------------15-------15-------17-------17--|
B|-------------------------14-------14-------14-------14-------14-------14--|
G|-------14-------14-------13-------13-------13-------13-------13-------13--| 
d|-00000-13-00000-13-00000-13-00000-13-00000-13-00000-13-00000-13-00000-13--|
A|-00000-12-00000-12-00000-12-00000-12-00000-12-00000-12-00000-12-00000-12--|
D|-00000----00000----00000----00000----00000----00000----00000----00000-----|
   .....    .....    .....    .....    .....    .....    .....    .....

2nd guitar:
e|----------------------------------------------------------|
B|----------------------------------------------------------|
G|----------------------------------------------------------| 
d|-00000~-00000~-00000~-00000~-00000~-00000~-00000~-00000~--|
A|-00000~-00000~-00000~-00000~-00000~-00000~-00000~-00000~--|
D|-00000~-00000~-00000~-00000~-00000~-00000~-00000~-00000~--|
   .....  .....  .....  .....  .....  .....  .....  .....
Tap to rate this tab
# A B C D E F G H I J K L M N O P Q R S T U V W X Y Z