Guitaretab - guitar tabs
Song name
# A B C D E F G H I J K L M N O P Q R S T U V W X Y Z

Misc Unsigned Bands - Add One Decibal - Trapped In The Fog tab

Distortion guitars-doubled throughout (Fill-Guitar 1 only)
                             
 Intro                                             
|-----------------|-------------|-----------|--------------|
|--*--------------|-------------|-----------|-----------*--|
|--*--------------|-------------|-----------|-----------*--|
|-----------------|-------------|-----------|--------------|
|--11----9h11-9---|--9---7h9-7-|--7---5h7-|-7-7b-7-7p5---|
|--9-9h11--------|--7-7h9------|--5-5h7----|------------7-|


Verses                   
                     P.M                P.M 
|------------------------|------------------|-----------------|
|--*---------------------|---------------*--|-----------------|
|--*---------------------|---------------*--|-----------------|
|------------------------|------------------|-----------------|
|--/11-11-11-11-11-----|--9-9-9-9-9-----|---11---9-9---7--|
|--/9---9---9-9-9-000-|--7-7-7-7-7-000-|---9----7-7---5--|
[ Tab from: http://www.guitaretab.com/m/misc-unsigned-bands/112101.html ]
                   Fill
                  
|-----------------|-----------------------|
|-----------------|-----------------------|
|-----------------|-----------------------|
|--------------9--|-----------------------|
|---11---9-9---7--|--------9-11-11-9------|
|---9----7-7------|----9-11----------11-9-|


Chorus
      P.M-|     P.M-|     P.M-|     P.M-|
|----------------------------------------------|
|----------------------------------------------|
|----------------------------------------------|
|----------------------------------------------|
|--1111-11-11-11-11-11-11-11-11-11-11-11---|
|--9---9--9--9--9--9--9--9--9--9--9-9--9-0-|

      P.M-|     P.M-|     P.M-|     P.M-|
|----------------------------------------------|
|----------------------------------------------|
|----------------------------------------------|
|----------------------------------------------|
|--9---9--9--9---9--9--9---9--9--9---9--9--9---|
|--7---7--7--7---7--7--7---7--7--7---7--7--7-0-|
Related for Add One Decibal - Trapped In The Fog tab