Guitaretab - guitar tabs
Song name
# A B C D E F G H I J K L M N O P Q R S T U V W X Y Z

Misc Unsigned Bands - Add One Decibal - One In A Milion tab

Highlighted       Show chord diagrams
Intro-Am Em Am D C Em C Em C Em  x2

Am
Sometimes
Em
I like to sit and think
Am
But sometimes
D              
Thinking
C                    Em   C   Em   C   Em
Ainít what I want to do


Am
Sometimes
Em
I like to be alone
Am
But sometimes
D            
Solitude
C                  Em    C   Em  C   Em
Just ainít what I need


Am                   Em
My Problems Come and go
Am                   D            C            G
Iím Glad youíll never be one of them
D                    C             G
Cause Youíre one in a million, Baby


Solo rhythm- Play Intro

               
             Am                   Em               Am                   D
[ Tab from: http://www.guitaretab.com/m/misc-unsigned-bands/112102.html ]
 |---------5-8----------|-----------------7-|-12----------------|-------------13-|
 |------5------10-------|-------------8-----|----13-------------|-----------15---|
 |---5-------------9----|-----------9-------|-------14----------|---------14-----|
 |-------------------10-|-10-----9----------|----------14-------|-------16-------|
 |----------------------|-----10------------|-------------15----|----17----------|
 |----------------------|-------------------|----------------17-|-17-------------|

        C              Em
 
 |----15---------|-15-----------|
 |--*---17-------|---17------*--|              X2
 |--------16-----|-----16-------|
 |----------17---|-------17-----|
 |--*---------14-|---------13-*-|
 |---------------|--------------|











Am
People
Em
Can be way too shallow
Am
These People
D
I Wonít
C                Em  C  Em  C  Em
Even try to talk to


Am
People
Em
Confide in all that they can
Am
These People
D
Will Discover
C                    Em   C  Em  C  Em
Theyíre making a mistake


Am                  Em
My Problems Come and go
Am             D     C            G
Iím Glad youíll never be one of them
D           C            G
Cause Youíre one in a million, Baby


Outro-Play Intro once
Related for Add One Decibal - One In A Milion tab