Song name
# A B C D E F G H I J K L M N O P Q R S T U V W X Y Z

Misc Unsigned Bands - Oceana - Reach For The Sky tab

-------------------------------------------------------------------------------
			     REACH FOR THE SKY - Oceana
-------------------------------------------------------------------------------
Tabbed by:justin
Email:xaznjustinx@yahoo.com
this is all i got so far it could get you started
Tuning:Drop C

d|---5h6p5---------------------------|
A|---------6s8--3------------12------|
F|-----------------5---------15------|
C|--------------------0---0----------|
G|--------------------0---0----------|
C|--------------------0---0----------|
                          *
Tap to rate this tab
# A B C D E F G H I J K L M N O P Q R S T U V W X Y Z