Song name
# A B C D E F G H I J K L M N O P Q R S T U V W X Y Z

Misc Unsigned Bands - Gravis - Instrumetal tab

Gravis - Instrumetal
Rhythm Guitar

Intro
Eb|---------------------------------|---------------------------------|
Bb|---------------------------------|---------------------------------|
Gb|-7-----5-4-----5-9-----5-3-----5-|-7-----5-4-----9-5-----7-4-----5-|
Db|---------------------------------|---------------------------------|
Ab|-5-----3-2-----3-7-----3-2-----3-|-5-----3-2-----7-3-----5-2-----3-|
Eb|---------------------------------|---------------------------------|

Eb|---------------------------------|---------------------------------|
Bb|---------------------------------|---------------------------------|
Gb|-5-----7-7-----2-2-----4-4-----9-|-9-----5-5-----7-7-----4-4-----5-|
Db|---------------------------------|---------------------------------|
Ab|-3-----5-5-----0-0-----2-2-----7-|-7-----3-3-----5-5-----2-2-----3-|
Eb|---------------------------------|---------------------------------|

Eb|---------------------------------|---------------------------------|
Bb|---------------------------------|---------------------------------|
Gb|-5-----7-7-----2-2-----4-4-----9-|-9-----5-5-----7-7-----4-4-------|
Db|---------------------------------|---------------------------------|
Ab|-3-----5-5-----0-0-----2-2-----7-|-7-----3-3-----5-5-----2-2-------|
Eb|---------------------------------|---------------------------------|

Verse 1
Eb|---------------------------------|---------------------------------|
Bb|---------------------------------|---------------------------------|
Gb|-2---x-x-2---x-2---x-2---2-x-2---|-4---x-x-4---x-4---x-4---4-x-4---|
Db|-2---x-x-2---x-2---x-2---2-x-2---|-4---x-x-4---x-4---x-4---4-x-4---|
Ab|-0---x-x-0---x-0---x-0---0-x-0---|-2---x-x-2---x-2---x-2---2-x-2---|
Eb|---------------------------------|---------------------------------|
                                                                       >rpt
Eb|---------------------------------|---------------------------------|  x3
Bb|---------------------------------|---------------------------------|
Gb|-5---x-x-5---x-5---x-5---5-x-5---|-7---x-x-7---x-7---x-7---7-x-7---|
Db|-5---x-x-5---x-5---x-5---5-x-5---|-7---x-x-7---x-7---x-7---7-x-7---|
Ab|-3---x-x-3---x-3---x-3---3-x-3---|-5---x-x-5---x-5---x-5---5-x-5---|
Eb|---------------------------------|---------------------------------|

Eb|---------------------------------|
Bb|---------------------------------|
Gb|-7~------------------------------|
Db|-7~------------------------------|
Ab|-5~------------------------------|
Eb|---------------------------------|

Chorus
Eb|---------------------------------|---------------------------------|
Bb|---------------------------------|---------------------------------|
Gb|-7-7-7-7---x-7---5---x-5---x-5---|-3---x-3---x-3---5---x-5---x-5---|rpt
Db|-5-5-5-7---x-7---5---x-5---x-5---|-3---x-3---x-3---5---x-5---x-5---|x4
Ab|-5-5-5-5---x-5---3---x-3---x-3---|-1---x-1---x-1---3---x-3---x-3---|
Eb|---------------------------------|---------------------------------|
   PM....
Eb|---------------------------------|---------------------------------|
Bb|---------------------------------|---------------------------------|
Gb|-7---7-7-7-7-7-7-5---5-5-5-5-5-5-|-3---3-3-3-3-3-3-5---5-5-5-5-5-5-|rpt
Db|-7---7-7-7-7-7-7-5---5-5-5-5-5-5-|-3---3-3-3-3-3-3-5---5-5-5-5-5-5-|x2
Ab|-5---5-5-5-5-5-5-3---3-3-3-3-3-3-|-1---1-1-1-1-1-1-3---3-3-3-3-3-3-|
Eb|---------------------------------|---------------------------------|
        PM.........     PM.........       PM.........     PM.........
Eb|---------------------------------|---------------------------------|
Bb|---------------------------------|---------------------------------|
Gb|-2---2-2-2-2-2-2-3---3-3-3-3-3-3-|-2---2-2-2-2-2-2-5---5-5-5-5-5-5-|rpt
Db|-2---2-2-2-2-2-2-3---3-3-3-3-3-3-|-2---2-2-2-2-2-2-5---5-5-5-5-5-5-|x2
Ab|-0---0-0-0-0-0-0-1---1-1-1-1-1-1-|-0---0-0-0-0-0-0-3---3-3-3-3-3-3-|
Eb|---------------------------------|---------------------------------|
        PM.........     PM.........       PM.........     PM.........
Verse 2
Eb|---------------------------------|---------------------------------|
Bb|---------------------------------|---------------------------------|
Gb|-2---------------7---------------|-5-------------------------------|rpt
Db|-2---------------7---------------|-5-------------------------------|x2
Ab|-0---0-0-0---0-0-5---0-0-0---0-0-|-3---0-0-0---0-0---0-0-0-0---0---|
Eb|---------------------------------|---------------------------------|
        PM.........     PM.........       PM...................
Eb|---------------------------------|---------------------------------|
Bb|---------------------------------|---------------------------------|
Gb|-----------------7~--------------|-5~------------------------------|rpt
Db|-7~------------------------------|---------------------------------|x2
Ab|---------------------------------|---------------------------------|
Eb|---------------------------------|---------------------------------|

Breakdown
Eb|---------------------------------|
Bb|---------------------------------|
Gb|-7---x-5---x-7---x-9---x-7---5---|rpt
Db|-7---x-5---x-7---x-9---x-7---5---|x4
Ab|-5---x-3---x-5---x-7---x-5---3---|
Eb|---------------------------------|

Solo x2
Eb|---------------------------------|---------------------------------|
Bb|---------------------------------|---------------------------------|
Gb|-7---x-5---x-7---x-9---x-7---5---|-7---x-5---x-7---x-9---x-7---10--|rpt
Db|-7---x-5---x-7---x-9---x-7---5---|-7---x-5---x-7---x-9---x-7---10--|x2
Ab|-5---x-3---x-5---x-7---x-5---3---|-5---x-3---x-5---x-7---x-5---8---|
Eb|---------------------------------|---------------------------------|

Eb|---------------------------------|---------------------------------|
Bb|---------------------------------|---------------------------------|
Gb|-9---x-7---x-9---x-10--x-9---7---|-9---x-7---x-9---x-10--x-9---12--|rpt
Db|-9---x-7---x-9---x-10--x-9---7---|-9---x-7---x-9---x-10--x-9---12--|x2
Ab|-7---x-5---x-7---x-8---x-7---5---|-7---x-5---x-7---x-8---x-7---10--|
Eb|---------------------------------|---------------------------------|

Interlude x4
Eb|---------------------------------|
Bb|---------------------------------|
Gb|-10--x-9---x-10--x-12--x-9---10--|
Db|-10--x-9---x-10--x-12--x-9---10--|
Ab|-8---x-7---x-8---x-10--x-7---8---|
Eb|---------------------------------|

Bridge
Eb|---------------------------------|---------------------------------|
Bb|---------------------------------|---------------------------------|
Gb|-10101010101010109-9-9-9-9-9-9-9-|---------------------------------|rpt
Db|-10101010101010109-9-9-9-9-9-9-9-|-10101010101010109-9-9-9-9-9-9-9-|x4
Ab|-8-8-8-8-8-8-8-8-7-7-7-7-7-7-7-7-|-10101010101010109-9-9-9-9-9-9-9-|
Eb|---------------------------------|-8-8-8-8-8-8-8-8-7-7-7-7-7-7-7-7-|
      PM.............................................................

Eb|---------------------------------|---------------------------------|
Bb|---------------------------------|---------------------------------|
Gb|-10~-------------9~--------------|---------------------------------|rpt
Db|---------------------------------|-10~-------------9~--------------|x2
Ab|---------------------------------|---------------------------------|
Eb|---------------------------------|---------------------------------|

Pre-Chorus x2
Eb|---------------------------------|---------------------------------|
Bb|---------------------------------|---------------------------------|
Gb|-7-7-7-7---x-7---5---x-5---x-5---|-3---x-3---x-3---5---x-5---x-5---|
Db|-5-5-5-7---x-7---5---x-5---x-5---|-3---x-3---x-3---5---x-5---x-5---|
Ab|-5-5-5-5---x-5---3---x-3---x-3---|-1---x-1---x-1---3---x-3---x-3---|
Eb|---------------------------------|---------------------------------|
   PM....

Repeat Chorus

Outro (repeat until fade)
Eb|---------------------------------|---------------------------------|
Bb|---------------------------------|---------------------------------|
Gb|---------------------------------|---------------------------------|
Db|---------5~--------------2~------|---------4~--------------5~------|
Ab|-0-0-7~------7---0-0-3~------3---|-0-0-5~------5---0-0-7~------7---|
Eb|---------------------------------|---------------------------------|
   PM...           PM...             PM...           PM...
Tap to rate this tab
 
# A B C D E F G H I J K L M N O P Q R S T U V W X Y Z