Song name
# A B C D E F G H I J K L M N O P Q R S T U V W X Y Z

Misc Unsigned Bands - Kung Pow - Underworld tab

this is a song i wrote 4 my band(myspace.com/kungpow13) and i think it sounds
awesome.its also my first time tabbing.so here it is (p.s. use a distortion and
wah pedal it sounds a lot better with it)EnJoY!

?=distortion
X=palm mute
!=wah
*=string bend
>=slide up neck
<=slide down neck

-------------------------------|
-----------------------15?!----|
-------------------------------|
-00--00----00-1-0-2-0----------|
-00--00----00-1-0-2-0----------|
-00--00----00-1-0-2-0----------|

-------------------------------|
-------------------------------|
-------------------------------|
--00-5-0-4-0-1?!---------------|
--00-5-0-4-0-1?!---------------|
--00-5-0-4-0-1?!---------------|

-00-1-0-2-0-3-0-4-0-3-0-2-0-1?!
-00-1-0-2-0-3-0-4-0-3-0-2-0-1?!
-00-1-0-2-0-3-0-4-0-3-0-2-0-1?!
Tap to rate this tab
 
# A B C D E F G H I J K L M N O P Q R S T U V W X Y Z