Song name
# A B C D E F G H I J K L M N O P Q R S T U V W X Y Z

Misc Unsigned Bands - The Brunettes - Her Hairagami Set tab

-----------------------------------------------------------------------
		 Her Hairagami Set - The Brunettes
-----------------------------------------------------------------------
Tabbed by:deHufter
Email:kurtkill@hotmail.com
http://www.myspace.com/thebrunettes (label: SubPop)

Tuning:standard

Intro + verse piano transcribed for guitar:
e|------------------------------------------------------------------------|
B|-----------------------------------2------------------------------------|
G|---------------------------------4---4-2--2-1---------------------------|
D|----2-----4-----------1------2-4--------------2-1--repeat---------------|
A|--4---4-2-----5---------2--4--------------------------------------------|
E|------------5---5-4h5---------------------------------------------------|

Intro + verse chords: C#m E A G#m
e|--4---7---5---4---------------------------------------------------------|
B|--5---9---5---4---------------------------------------------------------|
G|--6---9---6---4---------------------------------------------------------|
D|--6---9---7---6---------------------------------------------------------|
A|--4---7---7---6---------------------------------------------------------|
E|----------5---4---------------------------------------------------------|

Guitarlick towards chorus:
e|------------------------------------------------------------------------|
B|--2-2-2/4-4-4-4-5-5-5-5-7\5-4-0--2-2-2-2-2-0----------------------------|
G|---------------------------------------------1~-------------------------|
D|------------------------------------------------------------------------|
A|------------------------------------------------------------------------|
E|------------------------------------------------------------------------|

e|------------------------------------------------------------------------|
B|--2-2-2/4-4-4-4-5-5-5-5-7\5-4-0--2-2-2-2-2-0/5~-------------------------|
G|------------------------------------------------------------------------|
D|------------------------------------------------------------------------|
A|------------------------------------------------------------------------|
E|------------------------------------------------------------------------|

Chorus: E A C#m A                  C#m  A  C#m  A  C#m  B
e|--7---5---4---5-------------------4---5---4---5---4---2-----------------|
B|--9---5---5---5-------------------5---5---5---5---5---4-----------------|
G|--9---6---6---6----2-times-then:--6---6---6---6---6---4-----------------|
D|--9---7---6---7-------------------6---7---6---7---6---4-----------------|
A|--7---7---4---7-------------------4---7---4---7---4---2-----------------|
E|------5-------5-----------------------5-------5-------------------------|

Guitar from 2:41
e|------------------------------------------------------------------------|
B|------------------------------------------------------------------------|
G|------------------------------------------------------------------------|
D|--------------------2-2-2-2-2-2-2-2-------------------------------------|
A|--4-4-4-4-4-4-4-4-4-----------------2-2-2-2-2-2-2-----------------------|
E|--------------------------------------------------5-5-5-5-5\4-4-4-4-4---|

Which resolves into chords:
e|--4---7---7---5---4------------4----------------------------------------|
B|--5---9---7---5---4------------5----------------------------------------|
G|--6---9---8---6---4------------6----------------------------------------|
D|--6---9---9---7---6---end-on:--6----------------------------------------|
A|--4---7---9---7---6------------4----------------------------------------|
E|----------7---5---4-----------------------------------------------------|

Very easy but very cool song. Hope youŽll enjoy it.

| /  slide up
| \  slide down
| h  hammer-on
| p  pull-off
| ~  vibrato
| +  harmonic
| x  Mute note
===========================================================================
Tap to rate this tab
# A B C D E F G H I J K L M N O P Q R S T U V W X Y Z