Guitaretab - guitar tabs
Song name
# A B C D E F G H I J K L M N O P Q R S T U V W X Y Z

Misc Unsigned Bands - Capital Lights - Outrage tab

By the way tis is my first tab s dont get mad at me if it is wrong

I think the intro is the same as the chorus and outro

D-11------88------33------55p3h5-|     last time thought do this D-11111--888
A-11------88------33------55p3h5-|
D-11------88------33------55p3h5-|
G--------------------------------|
B--------------------------------|
E--------------------------------|
Ones^

verse is
[ Tab from: http://www.guitaretab.com/m/misc-unsigned-bands/112177.html ]
D5555------1111-----3333----0000|
A5555------1111-----3333----0000|
D5555------1111-----3333----0000|
G-------------------------------|
B-------------------------------|
E-------------------------------|

Pre-chorus is

D1~---3~---5~|
A1~---3~---5~|
D1~---3~---5~|
G------------|
B------------|
E------------|


Bridge Is

D-5--------1---------3| then speed up
A-5--------1---------3|
D-5--------1---------3|
G---------------------|
B---------------------|
E---------------------|

www.myspace.com/capitallights
Related for Capital Lights - Outrage tab
Advertisement will be closed in 10 seconds