Song name
# A B C D E F G H I J K L M N O P Q R S T U V W X Y Z

Misc Unsigned Bands - Lynxz - Lynxz Ii tab

e|----------------------------------|
B|----------------------------------|
G|----------------------------------|
D|----------------------------------|
A|-------4------2---5---------------|X5
E|-2-2-2---5------4-----------------|

e|----------------------------------|
B|----------------------------------|
G|----------------------------------|
D|--------------------2/------------|
A|--------------------2/------------|
E|-2-2-2~--2-2-2~-2~--0-------------|

e|--------------------------------------------|---------------------------------------------|
B|--------------------------------------------|---------------------------------------------|
G|--------------------------------------------|---------------------------------------------|
D|--------------------------------------------|---------------------------------------------|
A|------2h4h5-------2h4h5------2h4h5-----2h4h5|--------5h6h7h8-------5h6h7h8---------5h6h7h8|
E|-2h4h5------2h4h5-------2h4h5-----2h4h5-----|-5h6h7h8-------5h6h7h8--------5h6h7h8--------|
-
e|----------------------------------3p0---3p0---3p0---3p0---3/---------------------------------|
B|-------------------------------------3p0---3p0---3p0---3p0-----------------------------------|
G|------0h2h4-----0h2h4-----0h2h4----------------------------------------\7--------------------|
D|-0h2h4-----0h2h4-----0h2h4---------------------------------------------\7-----5---5----------|
A|-----------------------------------------------------------------------\5-----5---5----------|
E|------------------------------------------------------------------------------3---3----------|




legend
/slide down
\slide up
h hammer on
p pull off
~ vibrato
Tap to rate this tab
# A B C D E F G H I J K L M N O P Q R S T U V W X Y Z