Song name
# A B C D E F G H I J K L M N O P Q R S T U V W X Y Z

Misc Unsigned Bands - The Irish Front - Boom Snap Clap tab

-------------------------------------------------------------------------------
			     BOOM SNAP CLAP - The Irish Front
-------------------------------------------------------------------------------
Tabbed by:justin
Email:xaznjustinx@yahoo.com

Tuning:drop c

this probably isnt 100 percent correct but its close

|----------------------|
|----------------------|
|----------------------|
|-1-0-1---1-00-1-0-1---|
|-1-0-1---1-00-1-0-1---|
|-1-0-1---1-00-1-0-1---|
  * * *   * ** * * *


|-----------------------------------------------|
|-----------------------------------------------|
|-----------------------------------------------|
|------------------1-0-1-0-3-0-3-0-1-0-1-0------|
|-7777444477774444-1-0-1-0-3-0-3-0-1-0-1-0------|
|------------------1-0-1-0-3-0-3-0-1-0-1-0------|

REPEAT THAT 5 TIMES BUT ON 3RD AND 4TH TIME DO

|----------------------------------------|
|----------------------------------------|
|----------------------------------------|
|--------------------7777444477774444----|
|---7777444477774444---------------------|
|----------------------------------------|

THEN PLAY THE INTRO PATTERN FOR THE CHORDS UNTIL AFTER "BOOM SNAP CLAP"
THEN ITS MUTED ZEROS FOLLOWED BY

|----------------------------------------------------------------------------------|
|----------------------------------------------------------------------------------|
|----------------------------------------------------------------------------------|
|--------------------0-0-0-------0-0-0-------0-0-0------------------0-0-0-0-0------|
|--7777444477774444--0-0-0--7744-0-0-0--777--0-0-0-7777444477774444-0-0-0-0-0------|
|--------------------0-0-0-------0-0-0-------0-0-0------------------0-0-0-0-0------|
                     * * *       * * *       * * *                  * * * * *
---------------------------------------|
---------------------------------------|
---------------------------------------|
------------7777444477774444-----------|
7777444477774444-----------------------|
---------------------------------------|

DO THE LAST SET OF MUTES AND THE TEM PART TWICE AND END ON A MUTED ZERO
Tap to rate this tab
# A B C D E F G H I J K L M N O P Q R S T U V W X Y Z