Song name
# A B C D E F G H I J K L M N O P Q R S T U V W X Y Z

Misc Unsigned Bands - Mattrach - Monophonic tab

-------------------------------------------------------------------------------
			     Monophonic - Mattrach
-------------------------------------------------------------------------------
Tabbed by:Rafael203
Email:rafael_jimenez1191@hotmail.com

Tuning:eadgbe

e|--------------10-8-7------hb----7---hb--bendrebend-------------------------|
B|----hb----------------8---10--------10----9-9-9----------------------------|
G|----9-----------------------------------------------9-9h10p9<7-5-7-----5-7-|
D|-------------------------------------------------------------------5<7-----|
A|---------------------------------------------------------------------------|
E|---------------------------------------------------------------------------|

e|---------------------------------------------------------------------------|
B|-------8-------------------------------------------------------------------|
G|-7-9-9---------Then it repeats and the chorus-----12-12-12-12-12-12-13-13--|
D|---------------------------------------------------------------------------|
A|---------------------------------------------------------------------------|
E|---------------------------------------------------------------------------|

e|-------15---------------------hb-------------------------------------------|
B|-12-13----12-6--------6--8>10-10------hb-----------------------------------|
G|---------------9--7-9-------------5-7-7--5-7-------------------------------|
D|---------------------------------------------------------------------------|
A|---------------------------------------------------------------------------|
E|---------------------------------------------------------------------------|

e|---------------------------------------------------------------------------|
B|---------------------------------------------------------------------------|
G|--The next part should be improvised with any mixolidyan scale-------------|
D|---------------------------------------------------------------------------|
A|---------------------------------------------------------------------------|
E|---------------------------------------------------------------------------|






  HB Half step bend
| /  slide up
| \  slide down
| h  hammer-on
| p  pull-off
| ~  vibrato
| +  harmonic
| x  Mute note
===============================================================================
Tap to rate this tab
# A B C D E F G H I J K L M N O P Q R S T U V W X Y Z