Song name
# A B C D E F G H I J K L M N O P Q R S T U V W X Y Z

Misc Unsigned Bands - Omar Esau - Soy Un Loco tab

TqMmM mi ninia linda .......


Intro
     C          Am            C            Am
E---------------------------------------------------|
----------------------------------------------------|
---10-----------7-----------10-----------7----------|
------9-----------9------------9-----------9--------|
--------8-----------8------------8-----------8------|
e---------8--12-------7--8---------8--10-------7--8-|


  C
yo ya no te puedo olvidar
         Am
me he vuelto un loco desde que no estas
        Dm
como quisiera que estuvieras aqui
       G
para tenerte y poder ser feliz

  C
no se como me enamore
       Am
la culpa es de este fragil corazon
        Dm
como un tatuaje pegado a mi
        G
pues tus caricias me hacen sentir

==CORO==
            C
que soy un loco
                  G/B     Am
enamorado de tus dulces besos
                Am/C      Dm
que si no fuera tan solo por eso
     F           G
mi vida seria infeliz
          C
que soy un loco
                 G/B      Am
que no resiste estar tan lejos
                 Am/C     Dm7
que cada vez que miro una estrella
     F           G
me recuerda mas a ti

    C          Am            C            Am
E---------------------------------------------------|
----------------------------------------------------|
---10-----------7-----------10-----------7----------|
------9-----------9------------9-----------9--------|
--------8-----------8------------8-----------8------|
e---------8--12-------7--8---------8--10-------7--8-|

     C
sufro cada vez que te vas
       Am
soy diminuto en esta inmensa ciudad
       Dm
el tiempo se detiene sin ti
         G
soy una roca volando hasta al fin

   C
busco y no te puedo encontrar
       Am
y mis vacios no los puedo llenar
        Dm
porque tu ausencia es un veneno tan vil
         G
que mi agonia no puedo morir

==CORO=

por que soy un loco....

   Bb
mi mundo esta tan gris
                      G
que soy un infeliz solo y sin ti
      Bb
no dejo de sentir que te amo hasta morir
     G
solo y porque

==CORO==

TONOS
      E    e
C:    032010
Am:   x02210
Dm:   x00231
G:    320022
G/B:  020030
Am/C: x32210
Dm7:  x00211
F:    133211
Bb:   113331
Tap to rate this tab
# A B C D E F G H I J K L M N O P Q R S T U V W X Y Z