Song name
# A B C D E F G H I J K L M N O P Q R S T U V W X Y Z

Misc Unsigned Bands - Omar Esau - Sigo Amndote tab

rubi TqMmM + q tU a My ...........



Intro: D-A-b-A

Intro Piano:
e----5-3-2-0-2-3-2-/-2-5-3-2-2-0-0---0-2-0/------------/
b--3-------------------------------3-------------------/
g------------------------------------------------------/
d------------------------------------------------------/
a------------------------------------------------------/
e------------------------------------------------------/

e----3-2-0-2--/----0-2-3-2---0-----5-------------/
b--3---------3/--3---------3---3-----------------/
g--------------------------------3---------------/
d------------------------------------------------/
a------------------------------------------------/
e------------------------------------------------/

  D
Rechazaste mi caricias
       A
y Volteaste la mirada
           b
y hoy no puedo comprender
        A
porque tu no me das la cara
       D                           A
tu renuncias a mis besos los que nunca rechazabas
            b
y hoy que quiero darte un beso
         A
es tan fria tu mirada
        b                       f#
se perdio el amor se ha ido el calor
    G          A
o dime tu que sucedio
                D
porqe yo sigo amandote
             F#7
con todas la fuerzas de mi corazon
          b                A
yo sigo amandote con el corazon
            G-A               D
y no existira, ni en el otro mundo
                A          D
quien pudiera amarte como yo

Intermedio(se toca el intro de nuevo)

D
Me siento tan culpable
          A
por no estar muy bien contigo
       b
quisiera me perdonaras
      A
y volver a estar contigo
           b
pero se perdio el amor
             f#        G         A
se a ido el calor o dime tu que sucedio.
                 D
porque yo sigo amandote...
Tap to rate this tab
# A B C D E F G H I J K L M N O P Q R S T U V W X Y Z