Song name
# A B C D E F G H I J K L M N O P Q R S T U V W X Y Z

Misc Unsigned Bands - Viricidal - To Oceans End tab

the tuning for Drop A is
(small string to big)
B
F#
D
A
E
A


This first riff is hard only because you have to stretch your fingers hella far, but it 
really raw if you can get it down.


|-------------------------------------------|
|-------------------------------------------|
|-------------------------------------------|
|--3--3--3--3--7--2--2--2--2--2-2-----------| x3
|---7--7--7--7--8--6--6--6--6--6-6----------|
|----7--7--7--7--7--6--6--6--6--------------|

This riff is not only hard..is fast...really fast so practice it alot

|-------------------------------------------------|
|-------------------------------------------------|
|-------------------------------------------------|
|-------------------------------------------------| x1
|---1-1-------4--5-4----4-5-4----8-87---4-5-5-----|
|-14-4-4-1h4h7-74-7-7-47-7-7-7-88-8--444-4-4------|
  .. . .       .. . . .. . . . .. .  ... . .

after that play this right after

|-----------------------|
|-----------------------|
|-----------------------|
|-----------------------| x1
|---1-1-------4--5------|
|-14-4-4-1h4h7-74-------|
  .. . .       ..

Play this one more time but its alittle different
|--------------------------------------------------------|
|--------------------------------------------------------|
|--------------------------------------------------------|
|--------------------------------------------------------| x1
|---1-1-------4--5-4----4-5-4----8-87h8p7---4-4-4h5p4----|
|-14-4-4-1h4h7-74-7-7-47-7-7-7-88-8------444-4-4---------|
  .. . .       .. . . .. . . . .. .      ... . .

This is the riff you wanted to know the other day
|--------------------------------------------------------|
|--------------------------------------------------------|
|---------8-8-8-7-7--------------------------------------|
|--10--9-------------------------------------------------| x2
|----9--8------------------------------------------------|
|-----7--6-6-6-7-7-7-------------------------------------|
      .  . . . . . .

I get mad at this riff all the time so practice playing it hella slow and then speed up
|--------------------------------------------------------|
|--------------------------------------------------------|
|--------------------------------------------------------|
|---------------4--3----------------4--------------------| x4
|--4-44--245h754-55-44-4-44--245h754-55------------------|
|------74------------------74----------------------------|
       .....     .. ..     .....     ..

Hella fun riff when you got it down..
|---------------------------------------------------------|
|---------------------------------------------------------|
|---------------------------------------------------------|
|---------------------------------------------4-----------| x3
|--4--4--4--4--5--5--7---5--4--4--4--4--5--5---5-4--------|
|---74-74-74-74-85-85-107-85-74-74-74-74-85-85--7-74------|
    .. .. .. .. .. ..  .. .. .. .. .. .. .. ..  . ..
Tap to rate this tab
 
# A B C D E F G H I J K L M N O P Q R S T U V W X Y Z