Song name
# A B C D E F G H I J K L M N O P Q R S T U V W X Y Z

Misc Unsigned Bands - The Seven Deadly Sins - Damnit I Dropped My Pick tab

The seven deadly sins

“Damnit I dropped my pick”

drop c

Guitar 1 intro/ pre verse
|-------------------------------------------------------------------|---
|-------------------------------------------------------------------|---
|-------------------------------------------------------------------|---
|-------------------------------87-------------------------------78-|-7-
|-00-0h5h7-0h7h8-0h8h10-0h7h8p7-87-00-0h5h7-0h7h8-0h8h10-0h7h8p7-78-|-7-
|-00----------------------------87-00----------------------------78-|-7-
guitar 2
|-------------------------------------------------------------------|---
|-------------------------------------------------------------------|---
|-------------------------------------------------------------------|---
|-------------------------------87-------------------------------78-|-7-
|-00----------------------------87-00----------------------------78-|-7-
|-00----------------------------87-00----------------------------78-|-7-

guitar 1 verse
|---------------------------------------------|
|---------------------------------------------|
|---------------------------------------------|
|---7--7-7--8--8-8--10--10-10----12----12--11-|
|-55-55-5-77-77-7-88--88--8--1010--1010--10---|
|---------------------------------------------|
  xx xx x xx xx x xx  xx  x  x x   x x   x      

guitar 1 verse continued 
|----------------------------------------|
|----------------------------------------|
|----------------------------------------|
|---7--7-7--8--8-8—-10--10-10--12--12-11-|
|---5--5-5--7--7-7--8---8--8---10--10-10-|
|-00-00-0-00-00-0-00--00--0--00--00--0---|
  xx xx x xx xx x xx  xx  x  xx  xx  x


Guitar 2 verse keep playing for entire verse
|------------------------------------------|
|------------------------------------------|
|------------------------------------------|
|-5555555577777777888888881010101010101010-|
|-5555555577777777888888881010101010101010-|
|-5555555577777777888888881010101010101010-|
  xxxxxxxxxxxxxxxxxxxxxxxxxxxxxxxxxxxxxxxx 

guitar 1 pre chorus/chorus
|---------------------------------------------|
|---------------------------------------------|
|---------------------------------------------|
|---7--7-7--8--8-8--10--10-10----12----12--11-|
|-55-55-5-77-77-7-88--88--8--1010--1010--10---|
|---------------------------------------------|
Guitar 2 chorus
|------------------------------------------|
|------------------------------------------|
|------------------------------------------|
|-5555555577777777888888881010101010101010-|
|-5555555577777777888888881010101010101010-|
|-5555555577777777888888881010101010101010-|

Guitar 1 and 2 breakdown  
|-------------------------------------|
|-------------------------------------|
|-------------------------------------|
|-0~----00-00-00-00-0-0-00-00-00-00---|
|-0~-//-00-00-00-00-0-0-00-00-00-00---|
|-0~-//-00-00-00-00-0-0-00-00-00-00-3*|
        xx xx xx xx x x xx xx xx xx              

Guitar 1 and 2 breakdown continued
|-------------------------------|
|-------------------------------|
|-------------------------------|
|-00-00-00-00-0-0-00-00-00-00-5-|
|-00-00-00-00-0-0-00-00-00-00-5-|
|-00-00-00-00-0-0-00-00-00-00-5-|
  xx xx xx xx x x xx xx xx xx              
guitar 1 and 2 breakdown  continued
|--------------------------------|
|--------------------------------|
|--------------------------------|
|-00-00-00-00-0-0-00-00-00-00----|
|-00-00-00-00-0-0-00-00-00-00----|
|-00-00-00-00-0-0-00-00-00-00-3*-|
  xx xx xx xx x x xx xx xx xx              
Guitar 1 and 2 breakdown continued 
|-----------------------------------|
|-----------------------------------|
|-----------------------------------|
|-00-00-00-00-0-0-00-00-00-00-5-3-0-|
|-00-00-00-00-0-0-00-00-00-00-5-3-0-|
|-00-00-00-00-0-0-00-00-00-00-5-3-0-|
  xx xx xx xx x x xx xx xx xx              

intro
verse
pre chorus
chorus
intro
verse
pre chorus
chorus
outro

visit our myspace!
Tap to rate this tab
# A B C D E F G H I J K L M N O P Q R S T U V W X Y Z