Song name
# A B C D E F G H I J K L M N O P Q R S T U V W X Y Z

Misc Unsigned Bands - The Seven Deadly Sins - Leaving New York tab

“leaving new york”

standard (acoustic)

Capo on 3rd fret

intro
|-3---3------3---3---3------3---2---3------3---3---3------3----|
|---3--3-3-3--3-3--3--3-3-3--3-3--3--3-3-3--3-3--3--3-3-3--3-3-|
|--0-0--0-0-0--0--0-0--0-0-0--0--0-0--0-0-0--0--0-0--0-0-0--0--|
|--------------------------------------------------------------|
|----------------3--------------2--------------3---------------|
|-3------------------------------------------------------------|
verse
|-3---3---3---3---------------------|
|---3--3-3--3--3-33---3---3---3-----|
|--0-0--0--0-0--0---0--0-0--0--0-0--|
|------------------2-2--2--2-2--2---|
|-----------------2-------3---------|
|-3-------2-------------------------|
chorus
     d d u d    d d u d    d d u d    d d u d
|----3-3-3-3----3-3-3-3----3-3-3-3----3-3-3-3-|
|----3-3-3-3----3-3-3-3----3-3-3-3----3-3-3-3-|
|--0-0-0-0-0--0-0-0-0-0--0-0-0-0-0--0-0-0-0-0-|
|--0-0-0-0-0--0-0-0-0-0--2-2-2-2-2--2-2-2-2-2-|
|--2-2-2-2-2--0-0-0-0-0-22-2-2-2-2-33-3-3-3-3-|
|-3--3-3-3-3-2--2-2-2-2-----------------------|
post chorus
|-3---3---3---3---3---3---3---3---3-|
|------3-3-----3-3-----3-3--0--3-33-|
|---0---0---0---0---0---0--2-2--2-2-|
|--2-2-----2-2-----2-2----0-------0-|
|-2-------3-------0-----------------|
|-----------------------------------|
outro
|-3---3------3---3---3------3---2---3------3---3---3------3----3~-|
|---3--3-3-3--3-3--3--3-3-3--3-3--3--3-3-3--3-3--3--3-3-3--3-3-3~-|
|--0-0--0-0-0--0--0-0--0-0-0--0--0-0--0-0-0--0--0-0--0-0-0--0—-0~-|
|--------------------------------------------------------------0~-|
|----------------3--------------2--------------3---------------2~-|
|-3------------------------------------------------------------3~-|

intro
verse
chorus
post chorus
verse
chorus
chorus again faster
outro
Tap to rate this tab
 
# A B C D E F G H I J K L M N O P Q R S T U V W X Y Z