Song name
# A B C D E F G H I J K L M N O P Q R S T U V W X Y Z

Misc Unsigned Bands - Make Good Your Escae - Beautiful Ruin tab

-------------------------------------------------------------------------------
			     beautiful ruin - make good your escape
-------------------------------------------------------------------------------
Tabbed by:hate248
Email:blueshika48@yahoo.com

Tuning:standard

e|---------------------------------------------------------------------------|
B|-------------------14------------------------------------------------------|
G|--------------13-15--------------------------------------------------------|
D|-------14-16---------------------------------------------------------------|
A|-15-17---------------------------------------------------------------------|
E|---------------------------------------------------------------------------|

like 8 times

| /  slide up
| \  slide down
| h  hammer-on
| p  pull-off
| ~  vibrato
| +  harmonic
| x  Mute note
===============================================================================
Tap to rate this tab
# A B C D E F G H I J K L M N O P Q R S T U V W X Y Z