Song name
# A B C D E F G H I J K L M N O P Q R S T U V W X Y Z

Misc Unsigned Bands - My Sisters Machine - Feed tab

This song is a half step down to Eb, so if you are in standard tuning...
you are gay.

Intro:
--------------------|
--------------------|
--------------------|
--4-4------4-4------|
--4-4------4-4------|
--2-2------2-2------|

Main Riff:
---------------------------------------|
---------------------------------------|
---------------------------------------|
--4-4------------4-4-------------------|
--4-4------------4-4-------------------
--2-2s555-5-7-5--2-2-5s888-8-7-5-------
       [---P.M.---]     [---P.M.-------|

Verse:
---------------------------------------|
---------------------------------------|
---------------------------------------|
-4-------------------------------------|
-4-------------------------------------|
-2-22222222222222222222222-------------|
  [---------P.M.-----------------------|

"Ask man for a sacrifice, he'll give exucess.
Look deep in his callous vices, it's what he's made of."

--------|
--------|
---2----|  "It's me!!....I'm his greed!"
---2----|
---0----|
--------|

--------------------------------|
--------------------------------|
--------------------------------|
--4-----------------------------|
--4-----------------------------|
--2-222222222222222222222222----|
   [----------P.M.--------------|

"Look nit to the face we're given, its hidden deeper.
Look in at the truth thats spoken, its what were made of."

-----------|
-----------|
----2------| "Its me!!...this is me!!!"
----2------|
----0------|
-----------|

Reapeat the main riff before the chrous

Chrous:
------------      ------------------|
------------      ------------------|
--2----4----      ---2--------------|
--2----4---- 3x   ---2----6---5-----|
--0----2----      ---0----6---5-----|
------------      --------4---3-----|

Reapeat main riff
Reapeat verse
Main riff
Chrous
Main riff

Interlude:
----------------------------|
----------------------------|
----------------------------|
-4-4--4-4--4-4--4-4---------| (this is played in the backround behind the
-4-4--4-4--4-4--4-4---------|  solo)
-2-2--2-2--2-2--2-2---------|

Solo:
--------------------------------------------|
--2-----5-----8--------11-------------------|
--4^6---7^9---10^12----13^15----------------|
--------------------------------------------|
--------------------------------------------|
--------------------------------------------|

--------------------------------------------|
--------------------------------------------|
--------------------------------------------| 2x (I'm not 100% sure on this
-----------------9^10^9-7-------------------|     part)
------7-9~9-7-------------9-9---------------|
--7-9---------9-----------------------------|

--------------------------|
-2------1-----------------|
-4^6----3^5---------------|
--------------------------|
--------------------------|
--------------------------|

Main Riff 2x

Follwed by:
--------------|
--------------|
--------------|
-4-4---4-4----|
-4-4---4-4----|
-2-2---2-2----|


Chrous 2x
On the third time through the chrous, its played by palm muting while trilling at the 
time. then the final two chrods are....

---------------|
---------------|
---------------|
--4-4----4-4---|
--4-4----4-4---|
--2-2----2-2---|


And that's all she wrote.
Tap to rate this tab
# A B C D E F G H I J K L M N O P Q R S T U V W X Y Z