Song name
# A B C D E F G H I J K L M N O P Q R S T U V W X Y Z

Misc Unsigned Bands - Waters Edge - Cant Break Me Down tab

Can't Break Me Down By the Worship team Water's Edge (Written By Sam Meyo) in
Omaha, NE at Libery Christian Center on 60th and L

Myspace= www.myspace.com/watersedgeomaha

This song is a half step down and with the low E to Db for bar chords which reads like

Db Ab Db Gb Bb Eb

SONG STRUCTURE
RIFF 1 X4
RIFF 2 X2
Pre-Chorus X1
Chorus X2
RIFF 1 X4
RIFF 2 X4
Pre-Chorus X1
Chorus X2
Bridge X2
Build-Up
Chorus X2
Bridge X2

Riff 1
Eb|--17-17-17-17---15-1515-15-1515---13-13-13-13---15-1515-15-1515---|
Bb|--15-15-15-15---15-1515-15-1515---13-13-13-13---13-1313-13-1313---|
Gb|------------------------------------------------------------------|
Db|------------------------------------------------------------------|
Ab|------------------------------------------------------------------|
Db|------------------------------------------------------------------|

Riff 2

15/17 Arpi. 4 times | 15/15 Arpi. 4 times | 13/13 Arpi 4 times | 13/15 Arpi

4 times
Eb|---------17-(X4)--------15-(X4)---------13-(X4)---------15-(X4)--------|
Bb|---15-15----(--)--15-15----(--)---13-13----(--)---13-13----(--)--------|
Gb|-----------------------------------------------------------------------|
Db|-----------------------------------------------------------------------|
Ab|-----------------------------------------------------------------------|
Db|-----------------------------------------------------------------------|

Pre-Chorus

Eb|---------------------------------------------------------|
Db|---------------------------------------------------------|
Gb|-3---3---3-3-3---5---5-5---5-5-5-5---7---7---7-7-7-7-----|
Db|-3---3---3-3-3---5---5-5---5-5-5-5---7---7---7-7-7-7-----|
Ab|-1---1---1-1-1---3---3-3---3-3-3-3---5---5---5-5-5-5-----|
Db|---------------------------------------------------------|

Chorus

Eb|-----------------------------------------------------------------------|
Bb|-----------------------------------------------------------------------|
Gb|-3--3---3-3-3------------------------5---5---5-5-5-5--5-5---5-5-5-5----|
Db|-3--3---3-3-3---3---3-3---3-3-3-3----5---5---5-5-5-5--5-5---5-5-5-5----|
Ab|-1--1---1-1-1---3---3-3---3-3-3-3----3---3---3-3-3-3--3-3---3-3-3-3----|
Db|----------------3---3-3---3-3-3-3--------------------------------------|

Eb|-------------------------------------------------------------------|
Bb|-------------------------------------------------------------------|
Gb|-3--3---3-3-3-----------------------5-5-5--7-7-7--9-9-9--10-10-10--|
Db|-3--3---3-3-3---3---3-3---3-3-3-3---5-5-5--7-7-7--9-9-9--10-10-10--|
Ab|-1--1---1-1-1---3---3-3---3-3-3-3---3-3-3--5-5-5--7-7-7---8--8--8--|
Db|----------------3---3-3---3-3-3-3----------------------------------|

Eb|--------------------------|
Bb|--------------------------|
Gb|--9-10-9------------------|
Db|--9-10-9------------------|
Ab|--7--8-7------------------|
Db|--------------------------|

Bridge

Eb|-------------------------------------------------------------------|
Bb|-------------------------------------------------------------------|
Gb|-------------------------------------------------------------------|
Db|--0-0---0-0--0-0--3----0-0---0-0--0-0--3----0-0---0-0--0-0--3------|
Ab|--0-0---0-0--0-0--3----0-0---0-0--0-0--3----0-0---0-0--0-0--3------|
Db|--0-0---0-0--0-0--3----0-0---0-0--0-0--3----0-0---0-0--0-0--3------|

Eb|-------------------------------------------|
Bb|-------------------------------------------|
Gb|-------------------------------------------|
Db|--0-0---0-0--0-0---1-1-1-------------------|
Ab|--0-0---0-0--0-0---1-1-1-------------------|
Db|--0-0---0-0--0-0---1-1-1-------------------|
                      . . .

Build-Up

Eb|-----------------------------------------------------------------------|
Bb|-----------------------------------------------------------------------|
Gb|-----------------------------------------------------------------------|
Db|-----------------------------------------------------------------------|
Ab|-1--1--1--1--1--1--1--1-1-3--3--3--3--3--3--3-3-5--5--5--5--5--5--5--5-|
Db|-----------------------------------------------------------------------|
    .  .  .  .  .  .  .  . . .  .  .  .  .  .  . . .  .  .  .  .  .  .  . 
Eb|--------------------------------|
Bb|--------------------------------|
Gb|--------------------------------|
Db|--------------------------------|     DO ALL THE PALM MUTED PART TWICE
Ab|-5--5--5--5--5--5--5------------|     WITH A CRESCENDO ON THE SECOND TIME
Db|--------------------------------|     SLOWLY REALEASING THE P.M. ON 5
    .  .  .  .  .  .  .

Eb|--------------------------------------------------------|
Bb|--------------------------------------------------------|
Gb|-3--3--3--3--3--3--3-3-3--5--5--5--5--5--5--5-5-5-------|
Db|-3--3--3--3--3--3--3-3-3--5--5--5--5--5--5--5-5-5-------|
Ab|-1--1--1--1--1--1--1-1-1--3--3--3--3--3--3--3-3-3-------|
Db|--------------------------------------------------------|

Eb|-----------------------------------------------------|
Bb|-----------------------------------------------------| REPEAT THE POWER 
Gb|-7--7--7--7--7--7--7--7--7--7--7--7--7--7--7---------| CHORDED PART 2 
Db|-7--7--7--7--7--7--7--7--7--7--7--7--7--7--7---------| TIMES AS WELL
Ab|-5--5--5--5--5--5--5--5--5--5--5--5--5--5--5---------|
Db|-----------------------------------------------------|



holy crap that took like 3 hours!

Tap to rate this tab
# A B C D E F G H I J K L M N O P Q R S T U V W X Y Z