Song name
# A B C D E F G H I J K L M N O P Q R S T U V W X Y Z

Misc Unsigned Bands - Unjust - Knuckles tab

----------------------------------------------------------------------------
		             Unjust - Knuckles
----------------------------------------------------------------------------

Tabbed by: dtm187

Tuning: Drop C

Everytime I would come back and look for tabs I'd get annoyed that there was
not one tab for this band on the whole internet, as far as I could see.

Probably a couple of errors as the guitars are quite difficult to hear.

Great band, great song and if there are actually any other fans of this band
then let me know if there's any other songs you want doing and I'll have a
shot at it. Cheers.

Intro
D|-------------------------------------------------------------------------|
A|-------------------------------------------------------------------------|
F|-------------------------------------------------------------------------|
C|-4-4-4-4-4-4-4-4-4-4-4-4--7-7-7-7--6-6-6-6-6-6-6-6--4-4-4-4--0-0-0-0-(x2)|
G|-4-4-4-4-4-4-4-4-4-4-4-4--7-7-7-7--7-7-7-7-7-7-7-7--4-4-4-4--0-0-0-0-----|
C|-4-4-4-4-4-4-4-4-4-4-4-4--7-7-7-7--6-6-6-6-6-6-6-6--4-4-4-4--0-0-0-0-----|

D|-------------------------------------------------------------------------|
A|-------------------------------------------------------------------------|
F|-------------------------------------------------------------------------|
C|-4~----------------------------------------------------------------------|
G|-4~----------------------------------------------------------------------|
C|-4~----------------------------------------------------------------------|

Verse
D|-------------------------------------------------------------------------|
A|-------------------------------------------------------------------------|
F|-----9--------------6-----------6---4------------------------------------|
C|-0-7---7-(x8)-----4---4-(x7)--4---4--------------(x2)--------------------|
G|----------------2--------------------------------------------------------|
C|-------------------------------------------------------------------------|
                  . .           .   .       

Pre-chorus
D|-------------------------------------------------------------------------|
A|-------------------------------------------------------------------------|
F|-------------------------------------------------------------------------|
C|-0-0-0-0--0-0-0-x-2--4-4--4-4-4--4-4-4----------0-0-0-0--0-0-0-x-2--4----|
G|-0-0-0-0--0-0-0-x-2--4-4--4-4-4--4-4-4--4-------0-0-0-0--0-0-0-x-2--4----|
C|-0-0-0-0--0-0-0-x-2--4-4--4-4-4--4-4-4--4-4--2--0-0-0-0--0-0-0-x-2--4----|

D|-------------------------------------------------------------------------|
A|-------------------------------------------------------------------------|
F|-6-----------------------------------------------------------------------|
C|-x-(x8)------------------------------------------------------------------|
G|-4-----------------------------------------------------------------------|
C|-------------------------------------------------------------------------|

Chorus
D|-------------------------------------------------------------------------|
A|-------------------------------------------------------------------------|
F|-------------------------------------------------------------------------|
C|-4-4-4-4-4-4-4-4-4-4-4-4--7-7-7-7--6-6-6-6-6-6-6-6--4-4-4-4--0-0-0-0-(x4)|
G|-4-4-4-4-4-4-4-4-4-4-4-4--7-7-7-7--7-7-7-7-7-7-7-7--4-4-4-4--0-0-0-0-----|
C|-4-4-4-4-4-4-4-4-4-4-4-4--7-7-7-7--6-6-6-6-6-6-6-6--4-4-4-4--0-0-0-0-----|

Verse
D|-------------------------------------------------------------------------|
A|-------------------------------------------------------------------------|
F|-----9--------------6-----------6---4------------------------------------|
C|-0-7---7-(x8)-----4---4-(x7)--4---4--------------(x2)--------------------|
G|----------------2--------------------------------------------------------|
C|-------------------------------------------------------------------------|
                  . .           .   .       

D|-------------------------------------------------------------------------|
A|-------------------------------------------------------------------------|
F|-------------------------------------------------------------------------|
C|-0-0-0-0--0-0-0-x-2--4-4--4-4-4--4-4-4--------------0-0-0-0--0-0-0-x-4---|
G|-0-0-0-0--0-0-0-x-2--4-4--4-4-4--4-4-4--4------(x3)-0-0-0-0--0-0-0-x-4---|
C|-0-0-0-0--0-0-0-x-2--4-4--4-4-4--4-4-4--4--4--2-----0-0-0-0--0-0-0-x-4---|

D|-------------------------------------------------------------------------|
A|-------------------------------------------------------------------------|
F|------6------------------------------------------------------------------|
C|-4----x-(x8)-------------------------------------------------------------|
G|-4----4------------------------------------------------------------------|
C|-4-----------------------------------------------------------------------|

D|-------------------------------------------------------------------------|
A|-------------------------------------------------------------------------|
F|-------------------------------------------------------------------------|
C|-4-4-4-4-4-4-4-4-4-4-4-4--7-7-7-7--6-6-6-6-6-6-6-6--4-4-4-4--0-0-0-0-(x4)|
G|-4-4-4-4-4-4-4-4-4-4-4-4--7-7-7-7--7-7-7-7-7-7-7-7--4-4-4-4--0-0-0-0-----|
C|-4-4-4-4-4-4-4-4-4-4-4-4--7-7-7-7--6-6-6-6-6-6-6-6--4-4-4-4--0-0-0-0-----|

D|-------------------------------------------------------------------------|
A|-------------------------------------------------------------------------|
F|-------------------------------------------------------------------------|
C|-4~----------------------------------------------------------------------|
G|-4~----------------------------------------------------------------------|
C|-4~----------------------------------------------------------------------|

Bridge
D|-------------------------------------------------------------------------|
A|-------------------------------------------------------------------------|
F|-----9--------------6-----------6---4------------------------------------|
C|---7---7-(x8)-----4---4-(x7)--4---4--------------(x2)--------------------|
G|-5--------------2--------------------------------------------------------|
C|-------------------------------------------------------------------------|
   . . . .        . . . .       . . . .       

Pre-chorus
D|-------------------------------------------------------------------------|
A|-------------------------------------------------------------------------|
F|-------------------------------------------------------------------------|
C|-0-0-0-0--0-0-0-x-2--4-4--4-4-4--4-4-4----------0-0-0-0--0-0-0-x-2--4----|
G|-0-0-0-0--0-0-0-x-2--4-4--4-4-4--4-4-4--4-------0-0-0-0--0-0-0-x-2--4----|
C|-0-0-0-0--0-0-0-x-2--4-4--4-4-4--4-4-4--4-4--2--0-0-0-0--0-0-0-x-2--4----|

D|-------------------------------------------------------------------------|
A|-------------------------------------------------------------------------|
F|-6-----------------------------------------------------------------------|
C|-x-(x8)------------------------------------------------------------------|
G|-4-----------------------------------------------------------------------|
C|-------------------------------------------------------------------------|

Chorus
D|-------------------------------------------------------------------------|
A|-------------------------------------------------------------------------|
F|-------------------------------------------------------------------------|
C|-4-4-4-4-4-4-4-4-4-4-4-4--7-7-7-7--6-6-6-6-6-6-6-6--4-4-4-4--0-0-0-0-(x4)|
G|-4-4-4-4-4-4-4-4-4-4-4-4--7-7-7-7--7-7-7-7-7-7-7-7--4-4-4-4--0-0-0-0-----|
C|-4-4-4-4-4-4-4-4-4-4-4-4--7-7-7-7--6-6-6-6-6-6-6-6--4-4-4-4--0-0-0-0-----|

D|-------------------------------------------------------------------------|
A|-------------------------------------------------------------------------|
F|-------------------------------------------------------------------------|
C|-4~----------------------------------------------------------------------|
G|-4~----------------------------------------------------------------------|
C|-4~----------------------------------------------------------------------|



| /  slide up
| \  slide down
| h  hammer-on
| p  pull-off
| ~  let ring
| *  Pinch harmonic
| x  Mute string
| .  Palm mute
| b  Bend note	
============================================================================

http://www.unjust.com/
Tap to rate this tab
# A B C D E F G H I J K L M N O P Q R S T U V W X Y Z