Song name
# A B C D E F G H I J K L M N O P Q R S T U V W X Y Z

Misc Unsigned Bands - Carlos Paiao - Cinderela tab

Help us improve GuitareTab! Take a short survey!
Verse1:

E-----------------------------------------------------------------------------------|
B-----------------------------------------------------------------------------------|
G-----------------------------------------------------------------------------------|
D-0-0-0-0-5-7-8-8-8-8-7-5-0-0-0-0-8-8-7-0-0-0-0-4-5-7-7-7-7-5-4-0-0-0-0-10-10-8-----|
A-----------------------------------------------------------------------------------|
E-----------------------------------------------------------------------------------|


Verse2:

E--------------------------------------------------------------------------|
B--------------------------------------------------------------------------|
G-0-0-0-0-4-5-7-7-7-7-5-4-0-0-0-----------------------------2-1-1-1--------|
D-------------------------------3-3-1-1-1-1-1-3-3-0-0-0-0-5---------5-4-5--|
A--------------------------------------------------------------------------|
E--------------------------------------------------------------------------|


Chorus:

E-8-9-9-11-9-8-6-6-8-8-9-8-6-4-4-6-6-7-6-4-2-2-4-6-6-8-8-9-9-11-9-8-6-6-8-8-9-8-6-|
B---------------------------------------------------------------------------------|
G---------------------------------------------------------------------------------|
D---------------------------------------------------------------------------------|
A---------------------------------------------------------------------------------|
E---------------------------------------------------------------------------------|

4-4-6-6-7-6-4-3-1-|
------------------|
------------------|
------------------|
------------------|
------------------|
Related for Carlos Paiao - Cinderela tab