Song name
# A B C D E F G H I J K L M N O P Q R S T U V W X Y Z

Misc Unsigned Bands - Capital Lights - Let The Little Lady Talk tab

I'm not sure about the palm muted section.

e---------------------------------|
B---------------------------------|
G---------------------------------|  x2
D--9--9--9--9--5--5--4--4-0-------|
A--9--9--9--9--5--5--4--4-0-------|
D--9--9--9--9--5--5--4--4-0-------|

e-----------------------------|
B-7-7-5-5h7p5-3---7-7-5-7-3-5-|
G-----------------------------| x2
D-----------------------------|
A-----------------------------|
D-----------------------------|


Palm Muted
e-----------------------------|
B-----------------------------|repeated
G-----7-75-5-7-75-5-7-75-5----|
D-----------------------------|
A-----------------------------|
D-----------------------------|


e-----     ------------------------------|
B-----     ------------------------------|
G-----     ------------------------------| x4
D--79-     9-9--9--9--5--5--4--4-0-------|
A--79-     9-9--9--9--5--5--4--4-0-------|
D--79-     9-9--9--9--5--5--4--4-0-------|


Palm Muted
e-----------------------------|
B-----------------------------|repeated
G-----7-75-5-7-75-5-7-75-5----|
D-----------------------------|
A-----------------------------|
D-----------------------------|

e-------     --------------------------------|
B-------     --------------------------------|
G-------     --------------------------------| x4
D--79-79    9-9--9--9--5--5--4--4-0----------|
A--79-79    9-9--9--9--5--5--4--4-0----------|
D--79-79    9-9--9--9--5--5--4--4-0----------|


e--------------------|
B--------------------|
G--------------------| x4
D-77777777-99999999--|
A-77777777-99999999--|
D-77777777-99999999--|

e-----------------------------|
B-7-7-5-5h7p5-3---7-7-5-7-3-5-|
G-----------------------------| x4
D-----------------------------|
A-----------------------------|
D-----------------------------|

Palm Muted
e-----------------------------|
B-----------------------------|repeated
G-----7-75-5-7-75-5-7-75-5----|
D-----------------------------|
A-----------------------------|
D-----------------------------|

e---------------------------------|
B---------------------------------|
G---------------------------------|  x6
D--9--9--9--9--5--5--4--4-0-------|
A--9--9--9--9--5--5--4--4-0-------|
D--9--9--9--9--5--5--4--4-0-------|
Tap to rate this tab
# A B C D E F G H I J K L M N O P Q R S T U V W X Y Z