Song name
# A B C D E F G H I J K L M N O P Q R S T U V W X Y Z

Misc Unsigned Bands - In His Image - Poison tab

This is an easy intro that requires no skill. We are recording this to put
on youtube, so take a look for it in a  few months. I recommend using this
as an easy warmup for beginners.

e|-7--6--5--4-----------------------------------------------------|
B|-------------7--6--5--4-----------------------------------------|
G|-------------------------7--6--5--4-----------------------------|
D|------------------------------------7-6-5-4---------------------|
A|--------------------------------------------7-6-5-4----4~~~~~~~-|
E|----------------------------------------------------7654~~~~~~~-|

e|----------------------------------------------------------------|
B|----------------------------------------------------------------|
G|----------------------------------------------------------------|
D|----------------------------------------------------------------|
A|3-3-3-3-3-3-3-3-3-3-3-3-3-3-333-3-3-3-3-3-3-3-3-3-3-3-3-3-333-3-|
E|1-1-1-1-1-1-1-1-1-1-1-1-1-1-111-1-1-1-1-1-1-1-1-1-1-1-1-1-111-1-|
 [. . . . . . . . . . . . . .     . . . . . . . . . . . . .     .]
                                P.M

After that it repeats itself. I'll post the wholl\e song sometime after it's finished.
Tap to rate this tab
# A B C D E F G H I J K L M N O P Q R S T U V W X Y Z