Song name
# A B C D E F G H I J K L M N O P Q R S T U V W X Y Z

Misc Unsigned Bands - Stiff Dylans - Ever Fallen In Love tab

http://www.stiffdylansmusic.com

Intro:

e|-------------------------------------------------------------------|
B|-------------------------------------------------------------------|
G|---6-6-6-6-6-6-6-6-6-6-6-6-\2-2------------------------------------|  x2
D|---6-6-6-6-6-6-6-6-6-6-6-6-\2-2------------------------------------|
A|---4-4-4-4-4-4-4-4-4-4-4-4-\4-4------------------------------------|
E|-------------------------------------------------------------------|

e|-------------------------------------------------------------------|
B|---------------------5-5--7-5--------------------------------------|
G|----------6----4---------------------------------------------------|  x2
D|----6--------------------------------------------------------------|
A|------7------------------------------------------------------------|
E|-------------------------------------------------------------------|


Chorus:

  Ever Fallen In Love With Someone.....
e|------------------------|
B|------------------------|
G|---6-6-666-\4-4-4-444/--| x2
D|---6-6-666-\4-4-4-444/--|
A|---4-4-444-\2-2-2-222/--|
E|------------------------|

e|-------------------------------------------------------------------|
B|-------------------------------------------------------------------|
G|---7-7-7-7-----------------------9----------9----------------------|
D|---7-7-7-7----7-7-7-7-7-7----9-9-9-9----9-9-9-9--------------------|
A|---5-5-5-5----7-7-7-7-7-7----9-9-7-9----9-9-7-9--------------------|
E|--------------5-5-5-5-5-5----7-7---7----7-7---7--------------------|

 Outro:

e|-------------------------------------------------------------------|
B|-------------------------------------------------------------------|
G|-------7----------7-----------------------4-4-4-4-4-4-4-4---9------|
D|---7-7-7-7----7-7-7-7----5-5-5-5-5-5-5-5--4-4-4-4-4-4-4-4---9------|
A|---7-7-5-7----7-7-5-7----5-5-5-5-5-5-5-5--2-2-2-2-2-2-2-2---7------|
E|---5-5---5----5-5---5----3-3-3-3-3-3-3-3---------------------------|
Tap to rate this tab
# A B C D E F G H I J K L M N O P Q R S T U V W X Y Z