Song name
# A B C D E F G H I J K L M N O P Q R S T U V W X Y Z

Misc Unsigned Bands - Shadows Indiscretion - Belligerence tab

Tuning is in Drop A (A E A D F# B)


=========LEGEND===========
hammer-on------------------|h
pull off-------------------|p
tapping--------------------|T
palm mutee-----------------|pm.
divebomb-------------------|db
vibrato------------------~-|
bend up--------------------|
release--------------------|r
artificial harmonic--------|
natural harmonic-----------|#>

                   (x2)
|-----------------|--------------------------------------------|------|
|-----------------|--------------------------------------------|------|
|----------3db~~~~|--------------------------------------------|------|
|-----------------|-7-8------9-10----------7-6------3'---------|------|
|------1-0--------|-5-6------7--8-----2'^r-5-8--------4'-6'p3--|------|
|--4-3------------|----333333----22222--------333333-----------|------|
pm . .                 ......    .....        ......

|--------------------------------------------------------------------|
|--------------------------------------------------------------------|
|--------------------------------------------------------------------|
|------------3-2------4--3-6p3--5p2---------3-2-------4--3---3h6--4h7|
|----1---3-4-----1-3-4--------5----4-1---3-4----1-3-4-------5----6---|
|------1-----------------------4----3--1-------------------4----5----|


|--------------------------------------9p6-----------|
|------------------------------------12---8----------|
|-8p5------------------------------11------7---------|
|----7p4-----------7-------10-9-12----------8-----5/4|
|-------6p3-------5-8---6-9--9---------------9p5^r---|
|----------5p0-555---666-----------------------------|
pm             ...   ...

Very fast picking (x3)
|---------------------|
|---------------------|
|---------------------|
|555222444111444222555
|---------------------|
|---------------------|

(x2)
|---------------------------|---|
|---------------------------|---|
|----------11p7-----10p6----|---|
|--------------9--------8---|---|
|0--------0-----8--0-----7--|6'-|
|----------------9--------8-|---|


|--------------------------------------------------|
|--------------------------------------------------|
|--------------------------------------------------|
|---------------------------------2h5p2---2h5p2----|
|-0-0-0-0-0-----------0-0-0-0-0--4-----4-4-----4---|
|-0-0-0-0-0-1-3-4-3-1-0-0-0-0-0-3-------3-------3--|
pm. . . . . . . . . . . . . . . .       .        .

(x2)
|--------------------------------------------------|
|--------------------------------------------------|
|--------------------------------------------------|
|---------------------------------1h4p1---1h4p1----|
|-1-1-1-1-1-----------1-1-1-1-1--3-----3-3-----3---|
|-1-1-1-1-1-2-4-5-4-2-1-1-1-1-1-2-------2-------2--|
pm. . . . . . . . . . . . . . . .       .       .

|----------------------------------------------------------------------------|
|----------------------------------------------------------------------------|
|----------------------------------------------------------------------------|
|----1h4p1---1h4p1----2h5p2---2h5p2----7h10p7---7h11p7---6h9p6---5h8p5---6h9-|
|--3------3-3-----3--4-----4-4-----4--9------9-9------7-7-----7-7-----7-7----|
|-2--------2-------23-------3-------38--------8--------6-------6-------6-----|
pm.        .       ..       .       ..        .        .       .       .
Tap to rate this tab
# A B C D E F G H I J K L M N O P Q R S T U V W X Y Z