Song name
# A B C D E F G H I J K L M N O P Q R S T U V W X Y Z

Misc Unsigned Bands - The Days Before - Home tab

This is my band original song called Home, but this is the guitar tab for it!!!

www.myspace.com/thedaysbefore
^^^the rhythm and timing is all in there

Intro-No Guitar

Verse (NOTE: Play verse once by yourself)

e|----------------------------------------------------------------------------|
B|----------------------------------------------------------------------------|
G|----------------11--11---11------14--14----14-------11--11---11-------------|
D|-9--9----9------11--11---11------14--14----14-------11--11---11-------------|
A|-9--9----9-------9--9----9-------12--12----12--------9--9----9--------------|
E|-7--7----7------------------------------------------------------------------|
e|----------------------------------------------------------------------------|
B|----------------------------------------------------------------------------|
G|-----------------14--14----14--------9--9----9-------7--7----7--------------|
D|-9--9----9-------14--14----14--------9--9----9-------7--7----7--------------|5x
A|-9--9----9-------12--12----12--------7--7----7-------5--5----5--------------|
E|-7--7----7------------------------------------------------------------------|

Chorus(Note:Let the power chords ring out)

e|----------------------------------------------------------------------------|
B|----------------------------------------------------------------------------|
G|----------------------------------------------------------------------------|
D|-9----------------------------------7---------------------------------------|6x
A|-9----------------------------------7---------------------------------------|
E|-7----------------------------------5---------------------------------------|

Verse (NOTE: You play the verse once by yourself)

e|----------------------------------------------------------------------------|
B|----------------------------------------------------------------------------|
G|----------------11--11---11------14--14----14-------11--11---11-------------|
D|-9--9----9------11--11---11------14--14----14-------11--11---11-------------|
A|-9--9----9-------9--9----9-------12--12----12--------9--9----9--------------|
E|-7--7----7------------------------------------------------------------------|

e|----------------------------------------------------------------------------|
B|----------------------------------------------------------------------------|
G|-----------------14--14----14--------9--9----9-------7--7----7--------------|
D|-9--9----9-------14--14----14--------9--9----9-------7--7----7--------------|5x
A|-9--9----9-------12--12----12--------7--7----7-------5--5----5--------------|
E|-7--7----7------------------------------------------------------------------|

Chorus(Note:Let the power chords ring out)

e|----------------------------------------------------------------------------|
B|----------------------------------------------------------------------------|
G|----------------------------------------------------------------------------|
D|-9----------------------------------7---------------------------------------|6x
A|-9----------------------------------7---------------------------------------|
E|-7----------------------------------5---------------------------------------|

Bridge

e|-----------------------------------------------------------------------------|
B|-----------------------------------------------------------------------------|
G|-----------------------------------------------------------------------------|
D|--------------9-9--9-9-9--9-------------9-9--9-9-9-9--9-9-9-9-9-9-9-9-9-9-9-9|
A|------------------------------------------------------9-9-9-9-9-9-9-9-9-9-9-9|
E|-7-7--7-7-7--7-------------7-7--7-7-7--7--------------7-7-7-7-7-7-7-7-7-7-7-7|

e|-----------------|
B|-----------------|
G|-----------------|
D|-9-9-9-9---------|
A|-9-9-9-9---------|
E|-7-7-7-7---------|

Solo Pt. 1

e|----------------------------------------------------------------------------|
B|---7--7-7--7-7-7-11-8h7-11-8h7-11-8h7-----5--5-5--5-5-5-5-3h2-5-3h2-5-3h2-2-|
G|--7--------------------7------7----------7-------------------2-----------2-2|
D|-9--------------------------------------9-----------------------------------|3x
A|----------------------------------------------------------------------------|
E|----------------------------------------------------------------------------|

Solo Pt. 2

e|-----10-12-14-12-10-12--|
B|10-12-------------------|
G|------------------------|
D|------------------------|4x
A|------------------------|
E|------------------------|

Chorus(Note:Let the power chords ring out)

e|----------------------------------------------------------------------------|
B|----------------------------------------------------------------------------|
G|----------------------------------------------------------------------------|
D|-9----------------------------------7---------------------------------------|5x
A|-9----------------------------------7---------------------------------------|
E|-7----------------------------------5---------------------------------------|

Outro(Note:Let the last not ring out)

e|----------------------------|
B|----------------------------|
G|----------------------------|
D|--7--7--7--7--7--7--7--7--9-|
A|--7--7--7--7--7--7--7--7--9-|
E|--5--5--5--5--5--5--5--5--7-|
Tap to rate this tab
# A B C D E F G H I J K L M N O P Q R S T U V W X Y Z